Cifra Club

Aprenda

A Mais Pedida

Raimundos

Cifra: Versão 4 (violão e guitarra)
tom: C
Solo
-----------------------------------------------------------------------------------------
--------8--8-10-8---------------8--8-10-8--------------8--8-10-8-------------------------
--7--9-------------9-9-9--7--9-------------9-9-9--7--9-----------9-9-9--7-9--7--7/9--7/9-
-----------------------------------------------------------------------------------------
-----------------------------------------------------------------------------------------

Intr.: (C G Am) Dm C G Am
C
Nesse show não entra menor
Um homem censurou tava de mau humor
F               Dm                    Am  G
Não tinha dormido bem porque não levantou
C
Pense como ia ser bom se nós fizesse um som que ultrapassasse
     F            Dm              Am      G
A barreira das AM, FM e dos elevador, aí sim
       C                               Dm
Dá um selinho e mostra o seio That you saw
             F                     Am           Dm            G
Quando eu te vi o meu calção se abriu, caiu uma lágrima de um olho
                              C
Que se for dos dois então é namoro
                   F
Meu cabelo é ruim,   mas meu terno é de linho
C                        F               Dm            G            C
Vou ser seu salgadinho, cê vai gostar de mim, se eu tocar no seu radinho
C                F
Choro até o fim, só pra rimar com inho
C                           F               Dm
Pois se eu ganhar "din-din", cê vai gostar de mim,
       G              (C     G Am) Dm C G Am
Se eu tocar o seu radinho
C
Por favor, seu locutor, ao menos uma vez melhor se fossem três
F               Am                  G C Am G C
Toca o nosso som aí que tu me faz feliz
Dm                              Am G C
Se não tocar eu quebro o seu nariz
Dm                             (C Dm F Am Dm G)
Se não tocar eu quebro o seu nariz

Solo2
E |-------------------------------------------------------------------------------------
B |-------------------------------------------------------------------------------------
G |----------------------------------------------------------------7--------------------
D |-----------------------------------------7--7--7--7--5-----5h7-----7--5--------------
A |--3-----3--5--7--5--3-----5--7--8--7--5-----------------7----------------7-----------
E |-----3-----------------5-------------------------------------------------------------

E |-------------------------------------------------------------------------------------
B |-------------------------------------------------------------------------------------
G |----------------------------------------5-----5--7--9--7--5-----7--9--10--9--7-------
D |-------------------------------------------5-----------------7-----------------------
A |--8--7--8--7--8--7--7/5--7--5-----5--7-----------------------------------------------
E |-------------------------------8-----------------------------------------------------

E |------------------------------8------------------------------------------------------
B |--10--10--10--10--8-----8h10-----10--8-------------------------------10/8--13/12-----
G |---------------------9------------------9--10--9--10--9--10--9--9/7------------------
D |-------------------------------------------------------------------------------------
A |-------------------------------------------------------------------------------------
E |-------------------------------------------------------------------------------------

E |---------15---------15---------------------------------------------------------------
B |--15/16------15/16------15/16--13----------------------------------------------------
G |-------------------------------------------------------------------------------------
D |-------------------------------------------------------------------------------------
A |-------------------------------------------------------------------------------------
E |-------------------------------------------------------------------------------------

C                  F
Meu cabelo é ruim, Mas meu terno é de linho
C                      F                     Dm
Vou ser seu salgadinho, "cê" vai gostar de mim
       G                C
se eu tocar no seu radinho
                 F
Choro ate o fim, Só pra rimar com "inho"
C                            F                 Dm
Pois se eu ganhar "din-din", "cê" vai gostar de mim
        G
se eu tocar no seu radinho

C              F
Chame chame now musica chame now
C              F           Dm
Chame chame now musica só assim
         G             (C     G Am) Dm C G Am  C
pra eu tocar no seu radinho
Composição de Canisso / Digão / Fred / Rodolfo Abrantes
Colaboração e revisão:
  • Gabriel Gonçalves
  • Hiago Ritisena
  • Daiane Baroni
75.586 exibições
  • Simplificar cifra
    • ½ Tom
    • A
    • Bb
    • B
    • C
    • Db
    • D
    • Eb
    • E
    • F
    • F#
    • G
    • Ab
  • Adicionar à lista

    0 comentários

    Ver todos os comentários

    Conseguiu tocar?

    4 Tocaram 0 Ainda não

    Grave um vídeo tocando A Mais Pedida e nos envie!

    00:00 / 00:00
    Outros vídeos desta música
    Repetir Qualidade Automático
    Outros vídeos desta música
    00:00 / 00:00
    Automático
    Capítulos
    • Tocando a música
    • Apresentação / Equipamentos
    • Configuração pedal Hot Drive
    • Acordes Introdução
    • Tocando Introdução
    • Introdução - Parte 1 de 2
    • Introdução - Parte 2 de 2
    • Introdução - Parte 2 (Guitarra base)
    • Acordes Primeira Parte
    • Tocando Primeira Parte
    • Ensinando Primeira Parte
    • Dicas Pré-Refrão
    • Tocando Pré-Refrão
    • Ensinando Pré-Refrão
    • Riff do Pré-Refrão
    • Dicas Refrão
    • Tocando Refrão
    • Refrão - Gutiarra Solo
    • Dicas Interlúdio
    • Tocando Interlúdio
    • Ensinando Interlúdio
    • Dicas Segunda Parte
    • Tocando Segunda Parte
    • Ensinando Segunda Parte
    • Dicas Solo
    • Tocando Solo
    • Solo - Parte 1 de 3
    • Solo - Parte 2 de 3
    • Solo - Parte 3 de 3
    • Encerramento

    Cifra Club Pro

    Aproveite o Cifra Club com benefícios exclusivos e sem anúncios
    Cifra Club Pro
    Aproveite o Cifra Club com benefícios exclusivos e sem anúncios
    OK