Cifra Club

Me Lambe

Raimundos

Cifra: Principal
exibições 760.490
Tom: G
Introdução: Em  Eb  D
            Bm  Em

   Em             Eb
E|-7--------------6----8--6-----------------|
B|-8----10--8--7--8----------9--------------|
G|-9--------------8-------------------------|
D|-9--------------8-------------------------|
A|-7--------------6-------------------------|
E|------------------------------------------|

   D
E|-5-5-5-5-5-5-5-5-5------------------------|
B|-7-7-7-7-7-7-7-7-7------------------------|
G|-7-7-7-7-7-7-7-7-7------------------------|
D|-7-7-7-7-7-7-7-7-7------------------------|
A|-5-5-5-5-5-5-5-5-5------------------------|
E|------------------------------------------|

   Bm               Em
E|-7\---------------------------------------|
B|-7\---------------12-12-12-12-12-12-12----|
G|------------------12-12-12-12-12-12-12----|
D|-----x-x-x-x-x-x--------------------------|
A|-----x-x-x-x-x-x--------------------------|
E|-----x-x-x-x-x-x--------------------------|


Primeira Estrofe:

  P.M. . . . .    . . .      
E|-----------------------------------------------------|
B|-----------------------------------------------------|
G|-----------------------------------------------------|
D|-----------------------------------------------------|
A|-7-7-7-7-7-7-7--5-5-5-5/7--5-------------------------|
E|-----------------------------------------------------|

    Em  D
O quê? 
                  Em
O que que essa criança 
                 D
Tá fazendo aí toda mocinha?
 Em  D              Em
Vê,    já sabe rebolar
                D            Em
E hoje em dia quem não sabe?
                     D
Se ela der mole, eu juro
                 Em
Que eu não faço nada
                     D         Em
Dá cadeia e é contra o costume
                    D
Mas se eu tiver na rua 
              Em
E ela de mão dada com outro cara
          D
Eu morro de ciúme


Segunda Estrofe:

C                           Am
  E eu contente com as "malvada"
                   C
Achando que era o tal
                      Am   D
E me aparece essa coisinha


Terceira Estrofe:

    Em  D              Em
Me dê   agora seu telefone
                D
Outro dia a gente se liga
Em  D             Em
Eu    quero te levar 
                     D
Pra onde dá um frio na barriga


Quarta Estrofe:

E|------------------------------------------|
B|------------------------------------------|
G|-2------------5----2-----5----------------|
D|-2----3-3-2-2-5----2-----5----------------|
A|-0------------3----0-----3----------------|
E|------------------------------------------|

E|------------------------------------------|
B|------------------------------------------|
G|-7-7-7-7-7-7-7-7-7----7--6--5--2\---------|
D|-7-7-7-7-7-7-7-7-7----7--6--5--2\---------|
A|-5-5-5-5-5-5-5-5-5----5--4--3--2\---------|
E|------------------------------------------|

Am                   C
   Me fala a verdade
                       Am
Quantos anos você tem?

Eu acho que com a sua idade
 C                      D
Já dá pra brincar de fazer neném


Refrão:

 Bm             Em
Como a vista é linda 
           Bm     Em
Da roda gigante é
  
Tão grande
Bm               Em
Acho que ela viajou 
                   Bm  Em
Que eu era um picolé

Me lambe
 Bm                Em
No parque de diversões 
               Bm        Em
Foi que ela virou mulher

Das "forte"
 Bm              Em
Menina pega a boneca 
               Bm  Em
E bota ela de pé


Quinta Estrofe:
 
 Em                  D
Sinto, amigo, lhe dizer
                Em
Mas ela é de menor
         D
Isso é crime
      Em                 D
Seu guarda, se não fosse eu
            Em      D
Podia ser pior, imagine


Sexta Estrofe:

G                      Am
  O homem de cassetete 
 
Disse quando me algemou
  C
Que ela só tinha dezessete
  Em                      C
Que o pai dela era doutor
               D
E que se fosse eu
               G
Ainda faria igual
 Am           C
Se fosse no ano que vem
    D
Ia ser normal


Solo: Em  D  (4x)
      Am  C  Am  C  D

E|-----------------------------------------------------|
B|-----------------------------------------------------|
G|-----------------------------------------------------|
D|--------------5--7--7/9--9-7-5-7-5-------------------|
A|-x\-/7-7-7-7-----------------------------------------|
E|-----------------------------------------------------|

E|-----------------------------------------------------|
B|-----------------------------------------------------|
G|----------------------------7\-----------------------|
D|-----------5--7--7/9--9-9-9-7\-----------------------|
A|-7--7-7-7--------------------------------------------|
E|-----------------------------------------------------|

E|-----------------------------------------------------|
B|-----------------------------------------------------|
G|-----------------------------------------------------|
D|----------5--7--7/9--9-7-5-7-5-----------------------|
A|-7-7-7-7---------------------------------------------|
E|-----------------------------------------------------|

                    H.N
E|-----------------------------------------------------|
B|-----------------------------------------------------|
G|------------------12---------------------------------|
D|-----------5--7\--12---------------------------------|
A|-7--7-7-7--------------------------------------------|
E|-----------------------------------------------------|


Refrão Final:

 Bm             Em
Como a vista é linda 
           Bm     Em
Da roda gigante é
  
Tão grande
Bm               Em
Acho que ela viajou 
                   Bm  Em
Que eu era um picolé

Me lambe
 Bm                Em
No parque de diversões 
               Bm        Em
Foi que ela virou mulher

Das "forte"
 Bm              Em
Menina pega a boneca 
               Bm  Em
E bota ela de pé

 Bm             Em
Como a vista é linda 
           Bm     Em
Da roda gigante é
  
Tão grande
Bm               Em
Acho que ela viajou 
                   Bm  Em
Que eu era um picolé

Me lambe
 Bm                Em
No parque de diversões 
               Bm        Em
Foi que ela virou mulher

Das "forte"
 Bm              Em
Menina pega a boneca 
               Bm  Em
E bota ela de pé

0 comentários

    mostrar mais comentários

    Conseguiu tocar?

    110tocaram0ainda não

    Grave um vídeo tocando Me Lambe e mande pra gente!

    00:00 / 00:00
    outros vídeos desta música
    repetirqualidadeautomática
    Outro vídeos desta música
      00:00 / 00:00
      automática
      Capítulos
      • Tocando a música
      • Apresentação / Equipamentos
      • Configurações pedais
      • Acordes Introdução
      • Tocando Introdução
      • Introdução - Guitarra Clean
      • Introdução: Ritmo - Guitarra Clean
      • Introdução - Guitarra Riff
      • Dicas Primeira Estrofe
      • Acordes Primeira Estrofe
      • Tocando Primeira Estrofe
      • Primeira Estrofe - Guitarra Clean
      • Primeira Estrofe - Guitarra Riff
      • Acordes Segunda Estrofe
      • Tocando Segundao Estrofe
      • Segunda Estrofe - Guitarra Clean
      • Dicas Terceira e Quarta Estrofes
      • Tocando Terceira e Quarta Estrofes
      • Quarta Estrofe - Guitarra Riff
      • Dicas da música
      • Tocando Refrão - Solo
      • Solo - Parte 1 de 4
      • Solo - Parte 2 de 4
      • Solo - Parte 3 de 4
      • Solo - Parte 4 de 4
      • Encerramento
      OK