Enviar cifraEntrar

Me Lambe

Raimundos

Cifra: Principal
exibições 690.857
Tom: G
(intro) Em  Eb Em

           Em                                   D
E|-----7-----7--5-3-----------8---6---5---555555------|
B|---- 8----------------4-----------------777777------|
G|-----9----------------------------------777777------|
D|----------------------------------------------------|
A|----------------------------------------------5-4-3-|
E|----------------------------------------------------|

  Em   D                   Em                   D
O quê?   O que que essa criança tá fazendo aí toda mocinha?
Em  D            Em                  D
Vêm, já sabe rebolar, e hoje em dia quem não sabe
Em                   D                     Em
  Se ela der mole eu juro que eu não faço nada
                     D
Dá cadeia e é contra o costume
G                   D                Em
Mas se eu tiver na rua e ela de mão dada com outro cara
         D
Eu morro de ciúme!

Nessa parte entra a guitarra base com uma distoção bem pesada

C                         Am                     C
  E eu contente com as malvada achando que era o tal
                     Am
E me aparece essa coisinha

Em   D             Em                   D
Me dê agora seu telefone, outro dia a gente se liga
Em D            Em                      D
Eu  quero te levar pra onde dá um frio na barriga

Am                   C
  Me fala a verdade,   quantos anos você tem?
Am
  Eu acho que com a sua idade
C                      D
Já dá pra brincar de fazer neném

(refrão)
Bm             Em              Bm
Como a vista é linda da roda gigante
  Em
É   tão grande
Bm              Em                Bm
Acho que ela viajou que eu era um picolé
Em
  Me lambe
Bm                Em                 Bm
No parque de diversões foi que ela virou mulher
Em
  Das forte
Bm              Em                 Bm  Em
Menina pega a boneca e bota ela de pé

Em                     D               Em
Sinto, amigo, lhe dizer, mas ela é "de menor"
       D
Isso é crime
  Em                       D             Em
Seu guarda, se não fosse eu podia ser pior
  D
Imagine

C                      Am
  O homem de cassetete     disse, quando me algemou
C                          Em
Que ela só tinha dezessete e o pai dela era doutor
C                D               G
  E que se fosse eu ainda faria igual
Am           C             D
Se fosse no ano que vem ia ser normal

(solo) Em D (4x) Am C Am C D


E|-----------------------------------------------------------------------------------------------|
B|-----------------------------------------------------------------------------------------------|
G|--------------4--4-4-4-------------------4--4-4-4-7-4---------------4-4-4-4-----------------4~~|
D|----------5-7----------7-5-----------5-7------------------------5-7---------7-5----------5-7---|
A|--5/7--7-7-----------------7--7-7-7--------------------7--7-7-7-----------------7--7-7-7-------|
E|-----------------------------------------------------------------------------------------------|


E|----------------------------------|
B|----------------------------------|
G|--12--9~-10-9-----12-9------------|
D|----------------10~------12~~-----|
A|----------------------------------|
E|----------------------------------|


(refrão)
  • 1
  • 2
  • 3
  • 4
  • 5
  • 6
  • 7
  • 8
  • 9
  • 10
  • 11
  • 12
    Acordes para:

      0 comentários

        mostrar mais comentários

        Conseguiu tocar?

        103tocaram0ainda não

        Grave um vídeo tocando Me Lambe e mande pra gente!

        00:00 / 00:00
        outros vídeos desta música
        repetirqualidadeautomática
        • automática
        Outro vídeos desta música
          00:00 / 00:00
          automática
          • automática
          Acordes para:violão e guitarra
          dificuldadeexibiçõescontribuições
          2 versões de Tab de baixoexibiçõescontribuições
          1 versão de Guitar Proformatodownloadscontribuição
          fecharplay/pause subir/descer velocidade
            acordes
            fechar
            OK
            Feedback