Cifra Club

Palhas do Coqueiro

Raimundos

Cifra: Principal
exibições 128.034
Tom: B
[Intro]  E  C#  F#  E


E|-----------------------------------------------------------|
B|-----------------------------------------------------------|
G|-7---6-----------------------------------------------------|
D|-7---6---4--4--2-4--2-4------------------------------------|
A|-5---4---4--4--2-4--2-4------------------------------------|
E|---------2--2--0-2--0-2------------------------------------|

        
Pa pa pa pa

E|-----------------------------------------------------------|
B|-----------------------------------------------------------|
G|-----------------------------------------------------------|
D|---4--4--2-4--2--------------------------------------------|
A|---4--4--2-4--2--------------------------------------------|
E|---2--2--0-2--0--------------------------------------------|

       C#  E
Pa pa pa  pa

E|-----------------------------------------------------------|
B|-----------------------------------------------------------|
G|--------6--------------------------------------------------|
D|--6--6--6-6--4-6--6-7-8-9--9--9-9-9-9-9--9--9--9-9-9-9-6\--|
A|--6--6----6--4-6--4-5-6-7--7--7-7-7-7-7--7--7--7-7-7-7-4\--|
E|-----------------------------------------------------------|

 C#  D  D#  E  D           F#  B
Pa  pa pa  pa    pa pa pa pa

 E          C#         F#    E
Debaixo lá das palhas do coqueiro
                           C#  E  C#  D
É onde eu estou a lhe esperar
D#  E    D                  F#  E
Eu fico te esperando ali sozinho
         E             C#             F#   E
Sem ter carinho e sem ninguém pra mim amar
   F#                      E           C#  E
Eu acho que eu já sei porque você não vem
    F#             E                C#  E
Já deve ter encontrado um outro alguém
  C#  D   D#   E  D                    F#   E
Que  me roubou, que me roubou o teu carinho
       E                 C#           F#  E
Estou sozinho e sem ninguém pra mim amar
       E                 C#              F#  E  F#  E  F#
Estou sozinho e sem ninguém pra mim amar
 E                    F#
Debaixo de um teto de espelhos
          E            C#    D
É onde tu estás a me chifrar
D#  E                         F#
Eu fico aqui coçando os meus córneos
    E              C#        F#
Imaginando em que motel você está
                      E           C#
Eu acho que o grande motivo agora eu sei
      F#                      E                  C#
Você deve pensar que eu sou broxa ou que eu sou gay
 D    D#  E              F#
Mas pra provar tudo que eu sinto
       E             C#          F#
Estou sozinho e sem ninguém pra mim amar
       E             C#          F#  E
Estou sozinho e sem ninguém pra mim  amar
Acordes para:
    Composição: RaimundosColaboração e revisão:
    • Marcos Paulo
    • João Davanço

    0 comentários

      mostrar mais comentários

      Conseguiu tocar?

      3tocaram2ainda não

      Grave um vídeo tocando Palhas do Coqueiro e mande pra gente!

      00:00 / 00:00
      outros vídeos desta música
      repetirqualidadeautomática
      Outro vídeos desta música
        00:00 / 00:00
        automática
        OK