Cifra Club

Princesinha

Raimundos

Cifra: Principal (violão e guitarra)
Tom: F
(intro 2x)  F Bb

F
Gamei na coisinha linda
      G
E ela dá altos mole pra mim
F
Tremenda duma princesa linda
     G
Fina flor do meu jardim
        Bb         C        Am                Bb
Onde eu passo imaginando poesia que é pra musicar
Bb                                 C        F Bb (2x)
Escuta essa canção que eu fiz pra ti cantar
ÔÔÔ
F
Princesinha linda do meu coração
        Bb       C
Conquistada na malícia
     Bb             C
Com esse jeito de felina
Bb                        C
Abala mais que bala de canhão
ÔÔÔ

Princesinha.... princesinha...

( F G F G Bb C Am Bb C Bb C )

(solo)
E|--------------------------------------------------|
B|--------------------------------------------------|
G|--------------------------------------------------|
D|--7-7-7--7-7-8-7-7--8-7-10-8-7-----10-10-10--8-8-8|
A|---------------------------------8-5--------------|
E|--------------------------------------------------|

E|--------------------------------------------------|
B|--------------------------------------------------|
G|---------------------------7-7-7--7-7--9-7-5\7\5--|
D|-7-7-7----5-3-5-5--7-5-3-5------------------------|
A|--------------------------------------------------|
E|--------------------------------------------------|

E|--------------------------------------------------|
B|--------------------------------------------------|
G|-3-3/5-5-3-2-----2-2-2-----------5-5-3-2----------|
D|-------------3--3-3-3----7-5-5-5------------------|
A|--------------------------------------------------|
E|--------------------------------------------------|

E|--------------------1--5-1------------------------|
B|----------6-6-5-3-1-1-----------------------------|
G|-2/3\2-2------------------------------------------|
D|--------------------------------------------------|
A|--------------------------------------------------|
E|--------------------------------------------------|

F          F Bb
Ela é minha...
F
Princesinha linda do meu coração
        Bb       C
Conquistada na malícia
     Bb             C
Com esse jeito de felina
Bb                        C
Abala mais que bala de canhão
Ela é minha princesinha..
Princesinha.... princesinha...
exibições 50.759
Acordes para:
    Composição: Raimundos Colaboração e revisão:
    • Guilherme Caseiro

    0 comentários

    mostrar mais comentários

    Conseguiu tocar?

    0 tocaram 0 ainda não

    Grave um vídeo tocando Princesinha e mande pra gente!

    00:00 / 00:00
    outros vídeos desta música
    repetir qualidade Automático
    Outros vídeos desta música
    00:00 / 00:00
    Automático
    OK