Cifra Club

Power

Rainbow

Cifra: Principal (violão e guitarra)
Selo Cifra Club: esta cifra foi revisada para atender aos critérios oficiais da nossa Equipe de Qualidade.
tom: C
(intro)

  G  C G           C9 G              C G            C9   G

(gtr II)
|-3--3-3---------|-3--3-3-------|-3--3-3----------|-3--3-3------3-3---|
|-3--5-3---------|-3--3-3-------|-3--5-3----------|-3--3-3------3-3---|
|-4--5-4---------|-5--4-4-------|-4--5-4----------|-5--4-4------4-4---|
|-5--5-5---------|-5--5-5-------|-5--5-5----------|-5--5-5------5-5---|
|---------x-x-x--|------5---x-x-|---------x-x-x-x-|------5--x-x-------|
|-3--3-3---------|-3--3-3-------|-3--3-3----------|-3--3-3------3-3---|

   G  C G                   C G             C G          C9 G
|-3--3-3--------------|-3--3-3--------|-3--3-3--------|-3--3-3---------|
|-3--5-3--------------|-3--5-3--------|-3--5-3--------|-3--3-3---------|
|-4--5-4--------------|-4--5-4--------|-4--5-4--------|-5--4-4---------|
|-5--5-5--------------|-5--5-5--------|-5--5-5--------|-5--5-5---------|
|---------x-x-x-x-x-x-|---------x-x-x-|---------x-x-x-|------5--x-x-x--|
|-3--3-3--------------|-3--3-3--------|-3--3-3--------|-3--3-3---------|

  E
(gtr I)
                                        ~~~
|----------|------------|------------|-------------|
|-5--------|-(5)--------|-(5)--------|-------------|
|-4--------|-(4)--------|-(4)--------|-------------|
|-6--------|-(6)--------|-(6)--------|-------------|
|-7--------|-(7)--------|-(7)--------|--x/---------|
|----------|------------|------------|-------------|
|
(gtr II)
|----------|------------|------------|-------------|
|----------|------------|------------|-------------|
|----------|------------|------------|-------------|
|----------|------------|------------|-------------|
|-2--------|-(2)--------|-(2)--------|-(2)------x--|
|-0--------|-(0)--------|-(0)--------|-(0)---------|

   G   C  G           C9  G
|------------------|--------------------|
|------------------|--------------------|
|--7---9--7--------|--9---7--7----------|
|--9--10--9--------|-10---9--9----------|
|-10--10-10--------|-10--10-10----------|
|------------------|--------------------|
|
|--3---3--3--------|--3---3--3------3-3-|
|--3---5--3--------|--3---3--3------3-3-|
|--4---5--4--------|--5---4--4------4-4-|
|--5---5--5--------|--5---5--5------5-5-|
|------------x-x-x-|---------5--x-x-----|
|--3---3--3--------|--3---3--3------3-3-|

       C  G             C9  G
|--------------------|---------------------|
|--------------------|---------------------|
|--7---9--7----------|--9---7--7-----------|
|--9--10--9----------|-10---9--9-----------|
|-10--10-10----------|-10--10-10-----------|
|--------------------|---------------------|
|
|--3---3--3------3-3-|--3---3--3------3-3--|
|--5---3--3------3-3-|--3---3--3------3-3--|
|--5---4--4------4-4-|--5---4--4------4-4--|
|--5---5--5------5-5-|--5---5--5------5-5--|
|------------x-x-----|---------5--x-x------|
|--3---3--3------3-3-|--3---3--3------3-3--|

   G   C  G             C9  G
|--------------------|--------------------|
|--------------------|--------------------|
|--7---9--7----------|--9---7--7----------|
|--9--10--9----------|-10---9--9----------|
|-10--10-10----------|-10--10-10----------|
|--------------------|--------------------|
|
|--3---3--3------3-3-|--3---3--3------3-3-|
|--5---3--3------3-3-|--3---3--3------3-3-|
|--5---4--4------4-4-|--5---4--4------4-4-|
|--5---5--5------5-5-|--5---5--5------5-5-|
|------------x-x-----|---------5--x-x-----|
|--3---3--3------3-3-|--3---3--3------3-3-|

       C  G             C9  G
|--------------------|--------------------||
|--------------------|--------------------||
|--7---9--7----------|--9---7--7----------||
|--9--10--9----------|-10---9--9----------||
|-10--10-10----------|-10--10-10----------||
|--------------------|--------------------||
|
|--3---3--3------3-3-|--3---3--3------3-3-||
|--5---3--3------3-3-|--3---3--3------3-3-||
|--5---4--4------4-4-|--5---4--4------4-4-||
|--5---5--5------5-5-|--5---5--5------5-5-||
|------------x-x-----|---------5--x-x-----||
|--3---3--3------3-3-|--3---3--3------3-3-||

(1st Verse)
   G                             C  G         C9  G
|-----------|-------------|----------------|--------------------|
|-----------|-------------|----------------|--------------------|
|--7--------|--(7)--------|--7---9--7------|--9---7--7----------|
|--9--------|--(9)--------|--9--10--9------|-10---9--9----------|
|-10--------|-(10)--------|-10--10-10------|-10--10-10----------|
|-----------|-------------|----------------|--------------------|
|
|--3--------|--(3)--------|--3---3--3------|--3---3--3------3-3-|
|--3--------|--(3)--------|--3---5--3------|--3---3--3------3-3-|
|--4--------|--(4)--------|--4---5--4------|--5---4--4------4-4-|
|--5--------|--(5)--------|--5---5--5------|--5---5--5------5-5-|
|-----------|-------------|--------------x-|---------5--x-x-----|
|--3--------|--(3)--------|--3---3--3------|--3---3--3------3-3-|

                                     C  G           C9  G
|-----------|-----------------|------------------|-----------------------|
|-----------|-----------------|------------------|-----------------------|
|--7--------|--(7)------------|--7---9--7--------|--9---7--7-------------|
|--9--------|--(9)------------|--9--10--9--------|-10---9--9-------------|
|-10--------|-(10)------------|-10--10-10--------|-10--10-10-------------|
|-----------|-----------------|------------------|-----------------------|
|
|--3--------|--(3)------3-3-3-|--3---3--3--------|--3---3--3-------------|
|--3--------|--(3)------3-3-3-|--3---5--3--------|--3---3--3-------------|
|--4--------|--(4)------4-4-4-|--4---5--4--------|--5---4--4-------------|
|--5--------|--(5)------5-5-5-|--5---5--5--------|--5---5--5-------------|
|-----------|-----------------|------------x-x-x-|---------5--x-x-x-x-x--|
|--3--------|--(3)------3-3-3-|--3---3--3--------|--3---3--3-------------|

              F          G  C G          C9 G
|----------|----------|---------------|--------------|
|-3--------|-1--------|-3--5-3--------|-5--3-3-------|
|-4--------|-2--------|-4--5-4--------|-5--4-4-------|
|-5--------|-3--------|-5--5-5--------|-5--5-5-------|
|----------|----------|---------------|--------------|
|----------|----------|---------------|--------------|
|
|-3--------|-1--------|-3--3-3--------|-3--3-3-------|
|-3--------|-1--------|-3--5-3--------|-3--3-3-------|
|-4--------|-2--------|-4--5-4--------|-5--4-4-------|
|-5--------|-3--------|-5--5-5--------|-5--5-5-------|
|----------|----------|---------x-x-x-|------5--x--x-|
|-3--------|-1--------|-3--3-3--------|-3--3-3-------|

   G                              C G            C9 G
|----------|----------------|-----------------|----------------||
|-3--------|-(3)------------|-3--5-3----------|-5--3-3---------||
|-4--------|-(4)------------|-4--5-4----------|-5--4-4---------||
|-5--------|-(5)------------|-5--5-5----------|-5--5-5---------||
|----------|----------------|-----------------|----------------||
|----------|----------------|-----------------|----------------||
|
|-3--------|-(3)------3-3-3-|-3--3-3----------|-3--3-3---------||
|-3--------|-(3)------3-3-3-|-3--5-3----------|-3--3-3---------||
|-4--------|-(4)------4-4-4-|-4--5-4----------|-5--4-4---------||
|-5--------|-(5)------5-5-5-|-5--5-5----------|-5--5-5---------||
|----------|----------------|---------x-x-x-x-|------5---------||
|-3--------|-(3)------3-3-3-|-3--3-3----------|-3--3-3--3--3---||

(1st Pre-Chorus)
   Bb                     F
|----------------------|--------------------------|
|----------------------|--------------------------|
|--7-------------------|--5-----------------------|
|--8-------------------|--7-----------------------|
|--8-------------------|--9-----------------------|
|----------------------|--------------------------|
|
|----------------------|--------------------------|
|----------------------|--------------------------|
|----------------------|--------------------------|
|----------------------|--------------------------|
|--1-0-1-0-1-0---1-----|---------------3----------|
|--------------------3-|--1--0--1--0--------------|
|
| (gtr III)
|  ~~                                  ~~~~
|----------------------|--------------------------|
|-13-----------(13)-13-|-11-13-11-13-(13)---11b13r|
|----------------------|--------------------------|
|----------------------|--------------------------|
|----------------------|--------------------------|
|----------------------|--------------------------|

   C
|----------------------|--------------------------------------|
|----------------------|--------------------------------------|
|--9-------------------|--(9)---------------------------------|
|-10-------------------|-(10)---------------------------------|
|-10-------------------|-(10)---------------------------------|
|----------------------|--------------------------------------|
|
|----------------------|--------------------------------------|
|----------------------|--------------------------------------|
|----------------------|--------------------------------------|
|----------------------|--------------------------------------|
|--3-2-3-2-3-2-3--2----|---3---2----3----2-----3-----------0--|
|----------------------|-----------------------------3--3-----|
|
|----------------------|----------------------15-15----15-17--|
|-11-------------18b20-|-(18)-18b20---18---18-------18--------|
|----------------------|--------------------------------------|
|----------------------|--------------------------------------|
|----------------------|--------------------------------------|
|----------------------|--------------------------------------|

   Bb                                        F
|-----------------------------------------|-----------------|
|-----------------------------------------|-----------------|
|--7--------------------------------------|--5--------------|
|--8--------------------------------------|--7--------------|
|--8--------------------------------------|--8--------------|
|-----------------------------------------|-----------------|
|
|-----------------------------------------|-----------------|
|-----------------------------------------|-----------------|
|-----------------------------------------|-----------------|
|-----------------------------------------|-----------3-----|
|--1-----0------1--0------3--1--0---------|-----------------|
|------------------------------------3----|--1--0-1-0-------|
|
|-17b19r17b18==17r17b18==17r17-15-17---15-|-----------------|
|-----------------------------------------|-18\-------------|
|-----------------------------------------|---------------5-|
|-----------------------------------------|-----------------|
|-----------------------------------------|---------------3-|
|-----------------------------------------|-----------------|

   C                     Eb
|---------------------|----------------------||
|---------------------|----------------------||
|--9------------------|--8-------------------||
|-10------------------|--8-------------------||
|-10------------------|-10-------------------||
|---------------------|----------------------||
|
|---------------------|----------------------||
|---------------------|----------------------||
|---------------------|----------------------||
|---------------------|----------------------||
|--3--2-3-2-3-2--3--5-|--6-5-6-5-6-5---6-----||
|---------------------|--------------------6-||
|
|---------------------|----------------------||
|---------------------|----------6-------6---||
|-(5)-----------(5)-7-|--8-7-8-7-----8-------||
|---------------------|----------------------||
|-(3)-----------(3)---|----------------------||
|---------------------|----------------------||

(1st Chorus)
   G  C G            C9 G                 C G
|-----------------|-----------------|-----------------|
|-3--5-3----------|-5--3-3----------|-3--5-3----------|
|-4--5-4----------|-5--4-4----------|-4--5-4----------|
|-5--5-5----------|-5--5-5----------|-5--5-5----------|
|-----------------|-----------------|-----------------|
|-----------------|-----------------|-----------------|
|
|-3--3-3------3-3-|-3--3-3------3-3-|-3--3-3------3-3-|
|-3--5-3------3-3-|-3--3-3------3-3-|-3--5-3------3-3-|
|-4--5-4------4-4-|-5--4-4------4-4-|-4--5-4------4-4-|
|-5--5-5------5-5-|-5--5-5------5-5-|-5--5-5------5-5-|
|---------x-x-----|------5--x-x-----|------5--x-x-----|
|-3--3-3------3-3-|-3--3-3------3-3-|-3--3-3------3-3-|

   C9 G                   C G
|-------------------|-----------------|
|-5--3-3------------|-3--5-3----------|
|-5--4-4------------|-4--5-4----------|
|-5--5-5------------|-5--5-5----------|
|-------------------|-----------------|
|-------------------|-----------------|
|
|-3--3-3--------3-3-|-3--3-3------3-3-|
|-3--3-3--------3-3-|-3--5-3------3-3-|
|-5--4-4--------4-4-|-4--5-4------4-4-|
|-5--5-5--------5-5-|-5--5-5------5-5-|
|------5--x-x-x-----|---------x-x-----|
|-3--3-3--------3-3-|-3--3-3------3-3-|

   C9 G                G  C G          C  G              F
|-------------------|---------------|-----------------|----------|--------||
|-5--3-3------------|-3--5-3--------|-5--3-3----------|-1--------|-(1)----||
|-5--4-4------------|-4--5-4--------|-5--4-4----------|-2--------|-(2)----||
|-5--5-5------------|-5--5-5--------|-5--5-5----------|-3--------|-(3)----||
|-------------------|---------------|-----------------|----------|--------||
|-------------------|---------------|-----------------|----------|--------||
|
|-3--3-3--------3-3-|-3--3-3------3-|-3--3-3----------|-1--------|-(1)----||
|-3--3-3--------3-3-|-3--5-3------3-|-3--3-3----------|-1--------|-(1)----||
|-5--4-4--------4-4-|-4--5-4------4-|-5--4-4----------|-2--------|-(2)----||
|-5--5-5--------5-5-|-5--5-5------5-|-5--5-5----------|-3--------|-(3)----||
|------5--x-x-x-----|---------x-x---|------5--x-x-x-x-|----------|--------||
|-3--3-3--------3-3-|-3--3-3------3-|-3--3-3----------|-1--------|-(1)----||

(2nd Verse)
   G                             C  G            C9  G
|-----------|-------------|-------------------|----------------------|
|-----------|-------------|-------------------|----------------------|
|--7--------|--(7)--------|--7---9--7---------|--9---7--7------------|
|--9--------|--(9)--------|--9--10--9---------|-10---9--9------------|
|-10--------|-(10)--------|-10--10-10---------|-10--10-10------------|
|-----------|-------------|-------------------|----------------------|
|
|--3--------|--(3)--------|--3---3--3---------|--3---3--3------3-3---|
|--3--------|--(3)--------|--3---5--3---------|--3---3--3------3-3---|
|--4--------|--(4)--------|--4---5--4---------|--5---4--4------4-4---|
|--5--------|--(5)--------|--5---5--5---------|--5---5--5------5-5---|
|-----------|-------------|------------x-x-x--|---------5--x-x-------|
|--3--------|--(3)--------|--3---3--3---------|--3---3--3------3-3---|

                                     C  G               C9  G
|-----------|-----------------|----------------------|-----------------------|
|-----------|-----------------|----------------------|-----------------------|
|--7--------|--(7)------------|--7---9--7------------|--9---7--7-------------|
|--9--------|--(9)------------|--9--10--9------------|-10---9--9-------------|
|-10--------|-(10)------------|-10--10-10------------|-10--10-10-------------|
|-----------|-----------------|----------------------|-----------------------|
|
|--3--------|--(3)------3-3-3-|--3---3--3------------|--3---3--3-------------|
|--3--------|--(3)------3-3-3-|--3---5--3------------|--3---3--3-------------|
|--4--------|--(4)------4-4-4-|--4---5--4------------|--5---4--4-------------|
|--5--------|--(5)------5-5-5-|--5---5--5------------|--5---5--5-------------|
|-----------|-----------------|------------x-x-x-x-x-|---------5--x-x-x-x-x--|
|--3--------|--(3)------3-3-3-|--3---3--3------------|--3---3--3-------------|

              F          G  C G            C9 G
|----------|----------|-----------------|--------------------|
|-3--------|-1--------|-3--5-3----------|-5--3-3-------------|
|-4--------|-2--------|-4--5-4----------|-5--4-4-------------|
|-5--------|-3--------|-5--5-5----------|-5--5-5-------------|
|----------|----------|-----------------|--------------------|
|----------|----------|-----------------|--------------------|
|
|-3--------|-1--------|-3--3-3----------|-3--3-3-------------|
|-3--------|-1--------|-3--5-3----------|-3--3-3-------------|
|-4--------|-2--------|-4--5-4----------|-5--4-4-------------|
|-5--------|-3--------|-5--5-5----------|-5--5-5-------------|
|----------|----------|---------x-x-x-x-|------5--x-x-x-x-x--|
|-3--------|-1--------|-3--3-3----------|-3--3-3-------------|

                                  C G              C9 G
|----------|----------------|-------------------|-----------------||
|-3--------|-(3)------------|-3--5-3------------|-5--3-3----------||
|-4--------|-(4)------------|-4--5-4------------|-5--4-4----------||
|-5--------|-(5)------------|-5--5-5------------|-5--5-5----------||
|----------|----------------|-------------------|-----------------||
|----------|----------------|-------------------|-----------------||
|
|-3--------|-(3)------3-3-3-|-3--3-3------------|-3--3-3-(3)------||
|-3--------|-(3)------3-3-3-|-3--5-3------------|-3--3-3-(3)------||
|-4--------|-(4)------4-4-4-|-4--5-4------------|-5--4-4-(4)------||
|-5--------|-(5)------5-5-5-|-5--5-5------------|-5--5-5-(5)------||
|----------|----------------|---------x-x-x-x-x-|------5-(5)---0--||
|-3--------|-(3)------3-3-3-|-3--3-3------------|-3--3-3-(3)------||

(2nd Pre-Chorus)
  Bb                      F
  (gtr I
|-----------------------|--------------------------|
|-----------------------|--------------------------|
|--7--------------------|--5-----------------------|
|--8--------------------|--7-----------------------|
|--8--------------------|--9-----------------------|
|-----------------------|--------------------------|
|
| (gtr II)
|-----------------------|--------------------------|
|-----------------------|--------------------------|
|-----------------------|--------------------------|
|-----------------------|--------------------------|
|--1-0-1-0-13-1---0-----|--------------------------|
|---------------------3-|--1--0--1--0---1----------|
|
| (gtr III)
|  ~~                                   ~~~~
|-----------------------|--------------------------|
|-13------------(13)-13-|-11-13-11-13-(13)---11b13r|
|-----------------------|--------------------------|
|-----------------------|--------------------------|
|-----------------------|--------------------------|
|-----------------------|--------------------------|

   C
|----------------------|--------------------------------------|
|----------------------|--------------------------------------|
|--9-------------------|--(9)---------------------------------|
|-10-------------------|-(10)---------------------------------|
|-10-------------------|-(10)---------------------------------|
|----------------------|--------------------------------------|
|
|----------------------|--------------------------------------|
|----------------------|--------------------------------------|
|----------------------|-----------------------5--------------|
|----------------------|--------------------------------------|
|--3-2-3-2-3-2-3--2----|---3---2----3----2--------------------|
|----------------------|--------------------------------------|
|
|----------------------|----------------------15-15----15-17--|
|-11-------------18b20-|-(18)-18b20---18---18-------18--------|
|----------------------|--------------------------------------|
|----------------------|--------------------------------------|
|----------------------|--------------------------------------|
|----------------------|--------------------------------------|

   Bb                                        F
|-----------------------------------------|-----------------|
|-----------------------------------------|-----------------|
|--7--------------------------------------|--5--------------|
|--8--------------------------------------|--7--------------|
|--8--------------------------------------|--8--------------|
|-----------------------------------------|-----------------|
|
|-----------------------------------------|-----------------|
|-----------------------------------------|-----------------|
|-----------------------------------------|-----------------|
|-----------------------------------------|-----------------|
|--1-----0------1--0------3--1--0---------|-----------------|
|------------------------------------3----|--1--0-1-0-1-----|
|
|-17b19r17b18==17r17b18==17r17-15-17---15-|-----------------|
|-----------------------------------------|-18\-------------|
|-----------------------------------------|---------------5-|
|-----------------------------------------|-----------------|
|-----------------------------------------|---------------3-|
|-----------------------------------------|-----------------|

   C                     Eb
|---------------------|----------------------||
|---------------------|----------------------||
|--9------------------|--8-------------------||
|-10------------------|--8-------------------||
|-10------------------|-10-------------------||
|---------------------|----------------------||
|
|---------------------|----------------------||
|---------------------|----------------------||
|---------------------|----------------------||
|---------------------|----------------------||
|--3--2-3-2-3-2--3--5-|--6-5-6-5-6-5---6-----||
|---------------------|--------------------6-||
|
|---------------------|----------------------||
|---------------------|----------6-------6---||
|-(5)-----------(5)-7-|--8-7-8-7-----8-------||
|---------------------|----------------------||
|-(3)-----------(3)---|----------------------||
|---------------------|----------------------||

(2nd Chorus)
   G  C G            C9 G                 C G
|-----------------|-----------------|-------------------|
|-3--5-3----------|-5--3-3----------|-3--5-3------------|
|-4--5-4----------|-5--4-4----------|-4--5-4------------|
|-5--5-5----------|-5--5-5----------|-5--5-5------------|
|-----------------|-----------------|-------------------|
|-----------------|-----------------|-------------------|
|
|-3--3-3------3-3-|-3--3-3------3-3-|-3--3-3--------3-3-|
|-3--5-3------3-3-|-3--3-3------3-3-|-3--5-3--------3-3-|
|-4--5-4------4-4-|-5--4-4------4-4-|-4--5-4--------4-4-|
|-5--5-5------5-5-|-5--5-5------5-5-|-5--5-5--------5-5-|
|---------x-x-----|------5--x-x-----|------5--x-x-x-----|
|-3--3-3------3-3-|-3--3-3------3-3-|-3--3-3--------3-3-|

   C9 G                   C G
|-------------------|----------------------|
|-5--3-3------------|-3--5-3---------------|
|-5--4-4------------|-4--5-4---------------|
|-5--5-5------------|-5--5-5---------------|
|-------------------|----------------------|
|-------------------|----------------------|
|
|-3--3-3--------3-3-|-3--3-3---------------|
|-3--3-3--------3-3-|-3--5-3---------------|
|-5--4-4--------4-4-|-4--5-4---------------|
|-5--5-5--------5-5-|-5--5-5---------------|
|------5--x-x-x-----|--------x-x-x-x-x-x---|
|-3--3-3--------3-3-|-3--3-3---------------|

  C9 G                 C G            C9 G
  (gtr I)
|-----------------|-----------------|-------------------|
|-5--3-3----------|-3--5-3----------|-5--3-3------------|
|-5--4-4----------|-4--5-4----------|-5--4-4------------|
|-5--5-5----------|-5--5-5----------|-5--5-5------------|
|-----------------|-----------------|-------------------|
|-----------------|-----------------|-------------------|
|
| (gtr II)
|-3--3-3------3-3-|-3--3-3----------|-3--3-3------------|
|-3--3-3------3-3-|-3--5-3----------|-3--3-3------------|
|-5--4-4------4-4-|-4--5-4----------|-5--4-4------------|
|-5--5-5------5-5-|-5--5-5----------|-5--5-5------------|
|------5--x-x-----|---------x-x-x-x-|------5--x-x-x-x-x-|
|-3--3-3------3-3-|-3--3-3----------|-3--3-3------------|
|
| (gtr III)
|-----------------|-----------------|-------------------|
|-----------------|-----------------|-------------------|
|-----------------|-----------------|-------------------|
|-----------------|-----------------|-------------------|
|-----------------|-----------------|-------------------|
|-----------------|-----------------|-------------------|

   F                             D
|-----------------------------|--------------------------------||
|-1---------------------------|--3-----------------------------||
|-2---------------------------|--2-----------------------------||
|-3---------------------------|--4-----------------------------||
|-----------------------------|--------------------------------||
|-----------------------------|--------------------------------||
|
|-1---------------------------|--------------------------------||
|-1---------------------------|--7-----------------------------||
|-2---------------------------|--7-----------------------------||
|-3---------------------------|--7-----------------------------||
|-----------------------------|--5-----------------------------||
|-1---------------------------|--------------------------------||
|
|-------------5-8---5-8b10r8--|-(8)-8b10-8b10-8b10-8b10====8r--||
|-------6---6-----6-----------|--------------------------------||
|-----5---5-------------------|--------------------------------||
|---7-------------------------|--------------------------------||
|-----------------------------|--------------------------------||
|-----------------------------|--------------------------------||

(interlude)
  A       D    A                   D9       A
  (gtr IV
|--------------------------------|------------------------------------------------|
|-10-10---10----10--10--10-10-10-|-10----10-10--10------10-10-----10-----10-------|
|--9--9----9-----9---9---9--9--9-|--9-----9--9---9-------9--9------9------9-------|
|--------------------------------|------------------------------------------------|
|--------------------------------|------------------------------------------------|
|--------------------------------|------------------------------------------------|
|
|--5-------5-----5--(5)----------|--5--------5---5------(5)---------------5---5---|
|--5-------7-----5--(5)----------|--5--------5---5------(5)---------------5---5---|
|--6-------7-----6--(6)----------|--7--------6---6------(6)---------------6---6---|
|--7-------7-----7--(7)----------|--7--------7---7------(7)---------------7---7---|
|------------------------------x-|---------------7------(7)--------x--------------|
|--5-------5-----5--(5)----------|--5--------5---5------(5)---------------5---5---|
|
|--5----5----5-------------------|------------------------------------------------|
|-----8----8---/10-(10)-10-------|-10b13-------(10)b13==10r10p8----8--------------|
|--------------------------------|------------------------------9----9p8p===7S==5-|
|--------------------------------|------------------------------------------------|
|--------------------------------|------------------------------------------------|
|--------------------------------|------------------------------------------------|

               D    A                              D9    A
|-----------------------------------------------|-------------------------------|
|-10-----10---10---10---10------10-----10--10---|-10-10-10-10-10--10-10-10------|
|--9------9----9----9----9-------9------9---9---|--9--9--9--9--9---9--9--9------|
|-----------------------------------------------|-------------------------------|
|-----------------------------------------------|-------------------------------|
|-----------------------------------------------|-------------------------------|
|
|--5-----------5----5---(5)-----------------5-5-|--5-----5--5-(5)--------5-5----|
|--5-----------7----5---(5)-----------------5-5-|--5-----5--5-(5)--------5-5----|
|--6-----------7----6---(6)-----------------6-6-|--7-----6--6-(6)--------6-6----|
|--7-----------7----7---(7)-----------------7-7-|--7-----7--7-(7)--------7-7----|
|---------------------------------------x-------|-----------7-(7)-----x---------|
|--5-----------5----5---(5)-----------------5-5-|--5-----5--5-(5)--------5-5----|
|
|-----------------------------------------------|-------------------------------|
|-----------------------------------------------|-------------------------------|
|--7-7b9r===7p=5----7p5-----5----------------|-------------------------------|
|----------------7-------7----7p===5------------|-----------5-------------------|
|------------------------------------7------5p3-|--5-----3----------------------|
|-----------------------------------------------|--------------x\---------------|

   A        D  A                          D9          A
|--------------------------------------|---------------------------------------------|
|-10-10----10-10-10--10-10-------10----|-10-------10-10----10----10----10----10-10---|
|--9--9-----9--9--9---9--9--------9----|--9--------9--9-----9-----9-----9-----9--9---|
|--------------------------------------|---------------------------------------------|
|--------------------------------------|---------------------------------------------|
|--------------------------------------|---------------------------------------------|
|
|--5--------5--5-(5)--------------5--5-|--5-----------5-----5----(5)-------------5-5-|
|--5--------7--5-(5)--------------5--5-|--5-----------5-----5----(5)-------------5-5-|
|--6--------7--6-(6)--------------6--6-|--7-----------6-----6----(6)-------------6-6-|
|--7--------7--7-(7)--------------7--7-|--7-----------7-----7----(7)-------------7-7-|
|------------------------x-------------|--------------------7----(7)----------x------|
|--5--------5--5-(5)--------------5--5-|--5-----------5-----5----(5)-------------5-5-|
|
|-----------------------------------12-|-----------------------------------------0---|
|-10-10b13--------x--------15b17-------|----15b17----15b17-15b17-15b17-15b17---------|
|--------------------------------------|---------------------------------------------|
|--------------------------------------|---------------------------------------------|
|--------------------------------------|---------------------------------------------|
|--------------------------------------|---------------------------------------------|

            D     A                                       D9             A
|------------------------------------------------------------|-------------------------------------------------------|
|-10-------10----10----10----10-------10----10-------10------|-10-------10----10-------10----10-----10----10-10------|
|--9--------9-----9-----9-----9--------9-----9--------9------|--9--------9-----9--------9-----9------9-----9--9------|
|------------------------------------------------------------|-------------------------------------------------------|
|------------------------------------------------------------|-------------------------------------------------------|
|------------------------------------------------------------|-------------------------------------------------------|
|
|--5--------------5-----5----(5)----------------------5----5-|--5--------------5--------5----(5)--------------5-5----|
|--5--------------7-----5----(5)----------------------5----5-|--5--------------5--------5----(5)--------------5-5----|
|--6--------------7-----6----(6)----------------------6----6-|--7--------------6--------6----(6)--------------6-6----|
|--7--------------7-----7----(7)----------------------7----7-|--7--------------7--------7----(7)--------------7-7----|
|--------------------------------------------x---------------|--------------------------7----(7)-----------x---------|
|--5--------------5-----5----(5)----------------------5----5-|--5--------------5--------5----(5)--------------5-5----|
|                                                                                                         ~~
|------------------------------------------------------------|-------------------------------------------------------|
|-15b17r15p===13-15b17r15p13-15b17r15p===13-15b17r15p===13---|-15b17r15p===13-15b17r15p13h15p13--------13------------|
|------------------------------------------------------------|-----------------------------------14-------14---------|
|------------------------------------------------------------|-------------------------------------------------------|
|------------------------------------------------------------|-------------------------------------------------------|
|------------------------------------------------------------|-------------------------------------------------------|

            D  A                         D9          A
|-------------------------------------|------------------------------------------------|
|-10-10----10-10-10--10--10-----10----|-10----10----10----10----10-----10-----10--10---|
|--9--9-----9--9--9---9---9------9----|--9-----9-----9-----9-----9------9------9---9---|
|-------------------------------------|------------------------------------------------|
|-------------------------------------|------------------------------------------------|
|-------------------------------------|------------------------------------------------|
|
|--5--------5--5-(5)-------------5--5-|--5-----------5-----5----(5)----------------5-5-|
|--5--------7--5-(5)-------------5--5-|--5-----------5-----5----(5)----------------5-5-|
|--6--------7--6-(6)-------------6--6-|--7-----------6-----6----(6)----------------6-6-|
|--7--------7--7-(7)-------------7--7-|--7-----------7-----7----(7)----------------7-7-|
|-------------------------x-----------|--------------------7----(7)------------x-------|
|--5--------5--5-(5)-------------5--5-|--5-----------5-----5----(5)----------------5-5-|
|
|----15b17----------------------------|------------------------------------------------|
|--x--------------x--12-(12)h13p12----|----------12-13-12------------------------------|
|----------------------------------14-|-12-------------------14-12--14--x-12-(12)------|
|-------------------------------------|----14------------------------------------------|
|-------------------------------------|------------------------------------------------|
|-------------------------------------|------------------------------------------------|

           D  A                     D9            A
|--------------------------------|----------------------------------------------|
|--10--10-10-10-10--10-10---10---|-10-----10-----10---10---10--10---10-----10---|
|---9---9--9--9--9---9--9----9---|--9------9------9----9----9---9----9------9---|
|--------------------------------|----------------------------------------------|
|--------------------------------|----------------------------------------------|
|--------------------------------|----------------------------------------------|
|
|---5------5--5-(5)----------5-5-|--5-------------5----5---(5)--------------5-5-|
|---5------7--5-(5)----------5-5-|--5-------------5----5---(5)--------------5-5-|
|---6------7--6-(6)----------6-6-|--7-------------6----6---(6)--------------6-6-|
|---7------7--7-(7)----------7-7-|--7-------------7----7---(7)--------------7-7-|
|-----------------------x--------|---------------------7---(7)-------x----------|
|---5------5--5-(5)----------5-5-|--5-------------5----5---(5)--------------5-5-|
|
|--------------------------------|----------------------------------------------|
|--------------------------------|-----------------------------------8----------|
|-(12)-----------x---9--7-x--5-x-|----7b9r===7p5--7-5----5--5---7b9----7b9r===7-|
|--------------------------------|---------------------7------------------------|
|--------------------------------|----------------------------------------------|
|--------------------------------|----------------------------------------------|

  C                                  D
                                                Gt
|----------------------------------|------x\----||
|-5--------------------------------|-7----------||
|-5--------------------------------|-7----------||
|-5--------------------------------|-7----------||
|----------------------------------|------------||
|----------------------------------|------------||
|
|----------------------------------|------------||
|-5--------------------------------|-7----------||
|-5--------------------------------|-7----------||
|-5--------------------------------|-7----------||
|-3--------------------------------|-5----------||
|----------------------------------|------------||
|                                   ~
|---------5------------------------|------------||
|-8---------5----------------------|------------||
|---7b9r7-----7pb9r7-5---7---5-7-5-|-5----------||
|----------------------7---7-------|------------||
|----------------------------------|------------||
|----------------------------------|------------||

  G
 r I
|---------------------------|----------------------------|
|---------------------------|----------------------------|
|--7------------------------|--(7)-----------------------|
|--9------------------------|--(9)-----------------------|
|-10------------------------|-(10)-----------------------|
|---------------------------|----------------------------|
|
|--3------------------------|--(3)-----------------------|
|--3------------------------|--(3)-----------------------|
|--4------------------------|--(4)-----------------------|
|--5------------------------|--(5)-----------------------|
|---------------------------|----------------------------|
|--3------------------------|--(3)-----------------------|
|
|          /1\   \1/   /1\      \1/   /1\   \1/   /1\
|---------------------------|----------------------------|
|---------------------------|----------------------------|
|---------------------------|----------------------------|
|-----5--/(5)--/(5)--/(5)---|-/(5)--/(5)--/(5)--/(5)-----|
|---------------------------|----------------------------|
|--3------------------------|----------------------------|

   G  C G            C9 G                G
|-----------------|-------------------|------------|---------------------|
|-3--5-3----------|-5--3-3------------|------------|---------------------|
|-4--5-4----------|-5--4-4------------|--7---------|--(7)----------------|
|-5--5-5----------|-5--5-5------------|--9---------|--(9)----------------|
|-----------------|-------------------|-10---------|-(10)----------------|
|-----------------|-------------------|------------|---------------------|
|
|-3--3-3------3-3-|-3--3-3------------|--3---------|--(3)----------------|
|-3--5-3------3-3-|-3--3-3------------|--3---------|--(3)----------------|
|-4--5-4------4-4-|-5--4-4------------|--4---------|--(4)----------------|
|-5--5-5------5-5-|-5--5-5------------|--5---------|--(5)----------------|
|---------x-x-----|------5--x-x-x-x-x-|------------|---------------------|
|-3--3-3------3-3-|-3--3-3------------|--3---------|--(3)----------------|
|
|-----------------|-------------------|------------|---------------------|
|-----------------|-------------------|------------|---------------------|
|-----------------|-------------------|------------|---------/x---5tr7---|
|-5---------------|-5--5-5------------|-----5------|--(5)-------x--------|
|-----------------|-------------------|------------|---------------------|
|-3---------------|-3--3-3------------|--3---------|---------------------|

               C     G                        C9    G
|------------------------------------------|----------------------------||
|--3-----------5-----3---------------------|--5------3--3---------------||
|--4-----------5-----4---------------------|--5------4--4---------------||
|--5-----------5-----5---------------------|--5------5--5---------------||
|------------------------------------------|----------------------------||
|------------------------------------------|----------------------------||
|
|--3-----------3-----3-----------3-------3-|--3------3--3---------------||
|--3-----------5-----3-----------3-------3-|--3------3--3---------------||
|--4-----------5-----4-----------4-------4-|--5------4--4---------------||
|--5-----------5-----5-----------5-------5-|--5------5--5---------------||
|------------------------------------------|------------5----------0----||
|--3-----------3-----3-----------3-------3-|--3------3--3--3---3--------||
|
|------------------------------------------|----------------------------||
|------------------------------------------|----------------------13b15-||
|-10-12-10----10-12-10----10-12-10----10---|-10-12-(12)------(12)-------||
|----------12----------12----------12------|----------------------------||
|------------------------------------------|----------------------------||
|------------------------------------------|----------------------------||

(3rd Pre-Chorus)
   Bb                       F
|------------------------|--------------------------|
|------------------------|--------------------------|
|---7--------------------|--5-----------------------|
|---8--------------------|--7-----------------------|
|---8--------------------|--9-----------------------|
|------------------------|--------------------------|
|
|------------------------|--------------------------|
|------------------------|--------------------------|
|------------------------|--------------------------|
|------------------------|--------------------------|
|---1--0-1-0-3-1---0-----|--------------------------|
|----------------------3-|--1--0--1--0---1----------|
|
|   ~~~~                                 ~~~~
|------------------------|--------------------------|
|-(13)-----------(13)-13-|-11-13-11-13-(13)---11b13r|
|------------------------|--------------------------|
|------------------------|--------------------------|
|------------------------|--------------------------|
|------------------------|--------------------------|

   C
|----------------------|--------------------------------------|
|----------------------|--------------------------------------|
|--9-------------------|--(9)---------------------------------|
|-10-------------------|-(10)---------------------------------|
|-10-------------------|-(10)---------------------------------|
|----------------------|--------------------------------------|
|
|----------------------|--------------------------------------|
|----------------------|--------------------------------------|
|----------------------|--------------------------------------|
|----------------------|--------------------------------------|
|--3-2-3-2-3-2-3--2----|---3---2----3----2-----3-----------0--|
|----------------------|-----------------------------3--3-----|
|
|----------------------|----------------------15-15----15-17--|
|-11-------------18b20-|-(18)-18b20---18---18-------18--------|
|----------------------|--------------------------------------|
|----------------------|--------------------------------------|
|----------------------|--------------------------------------|
|----------------------|--------------------------------------|

   Bb                                        F
|-----------------------------------------|-----------------|
|-----------------------------------------|-----------------|
|--7--------------------------------------|--5--------------|
|--8--------------------------------------|--7--------------|
|--8--------------------------------------|--8--------------|
|-----------------------------------------|-----------------|
|
|-----------------------------------------|-----------------|
|-----------------------------------------|-----------------|
|-----------------------------------------|-----------------|
|-----------------------------------------|-----------------|
|--1-----0------1--0------3--1--0---------|-----------------|
|------------------------------------3----|--1--0-1-0-1-----|
|
|-17b19r17b18==17r17b18==17r17-15-17---15-|-----------------|
|-----------------------------------------|-18\-------------|
|-----------------------------------------|---------------5-|
|-----------------------------------------|-----------------|
|-----------------------------------------|---------------3-|
|-----------------------------------------|-----------------|

   C                     Eb
|---------------------|----------------------||
|---------------------|----------------------||
|--9------------------|--8-------------------||
|-10------------------|--8-------------------||
|-10------------------|-10-------------------||
|---------------------|----------------------||
|
|---------------------|----------------------||
|---------------------|----------------------||
|---------------------|----------------------||
|---------------------|----------------------||
|--3--2-3-2-3-2--3--5-|--6-5-6-5-6-5---6-----||
|---------------------|--------------------6-||
|
|---------------------|----------------------||
|---------------------|----------6-------6---||
|-(5)-----------(5)-7-|--8-7-8-7-----8-------||
|---------------------|----------------------||
|-(3)-----------(3)---|----------------------||
|---------------------|----------------------||

(3rd Chorus)
   G   C G             C9  G                     C G
|-------------------|---------------------|-----------------|
|-8-8-8-8-8-8---8-8-|-8-8-8-8-8-8---8-8---|-8-8-8-8-8-8-8-8-|
|-7-7-7-7-7-7---7-7-|-7-7-7-7-7-7---7-7---|-7-7-7-7-7-7-7-7-|
|-------------------|---------------------|-----------------|
|-------------------|---------------------|-----------------|
|-------------------|---------------------|-----------------|
|
|-3---3-3-------3---|-3---3-3-------------|-3---3-3---------|
|-3---5-3-------3---|-3---3-3-------------|-3---5-3---------|
|-4---5-4-------4---|-5---4-4-------------|-4---5-4---------|
|-5---5-5-------5---|-5---5-5-------------|-5---5-5---------|
|-----------x-x-----|-------5---x-x-x-x-x-|-------5---x-x-x-|
|-3---3-3-------3---|-3---3-3-------------|-3---3-3---------|

   C9  C                       C G
|-----------------------|----------------------|
|-8-8-8-8-8-8---8---8---|-8-8-8-8-8-8-8-8------|
|-7-7-7-7-7-7---7---7---|-7-7-7-7-7-7-7-7------|
|-----------------------|----------------------|
|-----------------------|----------------------|
|-----------------------|----------------------|
|
|-3---3-3---------------|-3---3-3-------3-3----|
|-3---3-3---------------|-3---5-3-------3-3----|
|-5---4-4---------------|-4---5-4-------4-4----|
|-5---5-5---------------|-5---5-5-------5-5----|
|-------5---x-x-x-x-x-x-|-----------x-x--------|
|-3---3-3---------------|-3---3-3-------3-3----|

   C9  G                 G   C G             C9  G
|---------------------|-------------------|-----------------------||
|-8-8-8-8-8-8---8-8---|-8-8-8-8-8-8---8-8-|-8-8-8-8---x\-----x\---||
|-7-7-7-7-7-7---7-7---|-7-7-7-7-7-7---7-7-|-7-7-7-7---------------||
|---------------------|-------------------|-----------------------||
|---------------------|-------------------|-----------------------||
|---------------------|-------------------|-----------------------||
|
|-3---3-3-------------|-3---3-3-----------|-3---3-3---------------||
|-3---3-3-------------|-3---5-3-----------|-3---3-3---------------||
|-5---4-4-------------|-4---5-4-----------|-5---4-4---------------||
|-5---5-5-------------|-5---5-5-----------|-5---5-5---------------||
|-------5-x-x-x-x-x-x-|-----------x-x-x-x-|-------5-x-x--x-x-x--x-||
|-3---3-3-------------|-3---3-3-----------|-3---3-3---------------||

(outro)
  A     D  A                 D9    A
  (gtr IV
|--------------------------|-----------------------------|
|-10-10-10-10-10--10-10-10-|-10-10-10-10-10-10---10-10---|
|--9--9--9--9--9---9--9--9-|--9--9--9--9--9--9----9--9---|
|--------------------------|-----------------------------|
|--------------------------|-----------------------------|
|--------------------------|-----------------------------|
|
| (gtr II)
|--5-----5--5-(5)--------5-|--5-----5--5-------------5-5-|
|--5-----7--5-(5)--------5-|--5-----5--5-------------5-5-|
|--6-----7--6-(6)--------6-|--7-----6--6-------------6-6-|
|--7-----7--7-(7)--------7-|--7-----7--7-------------7-7-|
|--------------------------|-----------7-----x-x--x------|
|--5-----5--5-(5)--------5-|--5-----5--5-------------5-5-|

         D  A                    D9    A
|-----------------------------|-------------------------------|
|-10-10-10-10-10-10---10-10---|-10-10-10-10-10-10---10-10-----|
|--9--9--9--9--9--9----9--9---|--9--9--9--9--9--9----9--9-----|
|-----------------------------|-------------------------------|
|-----------------------------|-------------------------------|
|-----------------------------|-------------------------------|
|
|--5-----5--5-------------5-5-|--5-----5--5-------------5-5---|
|--5-----7--5-------------5-5-|--5-----5--5-------------5-5---|
|--6-----7--6-------------6-6-|--7-----6--6-------------6-6---|
|--7-----7--7-------------7-7-|--7-----7--7-------------7-7---|
|-----------------x-x--x------|-----------7-----x-x--x--------|
|--5-----5--5-------------5-5-|--5-----5--5-------------5-5---|

         D  A                    D9    A
|-----------------------------|-----------------------------|
|-10-10-10-10-10-10---10-10---|-10-10-10-10-10-10---10-10---|
|--9--9--9--9--9--9----9--9---|--9--9--9--9--9--9----9--9---|
|-----------------------------|-----------------------------|
|-----------------------------|-----------------------------|
|-----------------------------|-----------------------------|
|
|--5-----5--5-------------5-5-|--5-----5--5-------------5-5-|
|--5-----7--5-------------5-5-|--5-----5--5-------------5-5-|
|--6-----7--6-------------6-6-|--7-----6--6-------------6-6-|
|--7-----7--7-------------7-7-|--7-----7--7-------------7-7-|
|-----------------x-x--x------|-----------7-----x-x--x------|
|--5-----5--5-------------5-5-|--5-----5--5-------------5-5-|

         D  A                    D9    A
|-----------------------------|-----------------------------|
|-10-10-10-10-10-10---10-10---|-10-10-10-10-10-10---10-10---|
|--9--9--9--9--9--9----9--9---|--9--9--9--9--9--9----9--9---|
|-----------------------------|-----------------------------|
|-----------------------------|-----------------------------|
|-----------------------------|-----------------------------|
|
|--5-----5--5-------------5-5-|--5-----5--5-------------5-5-|
|--5-----7--5-------------5-5-|--5-----5--5-------------5-5-|
|--6-----7--6-------------6-6-|--7-----6--6-------------6-6-|
|--7-----7--7-------------7-7-|--7-----7--7-------------7-7-|
|-----------------x-x--x------|-----------7-----x-x--x------|
|--5-----5--5-------------5-5-|--5-----5--5-------------5-5-|

         D  A                    D9    A
|-----------------------------|-----------------------------|
|-10-10-10-10-10-10---10-10---|-10-10-10-10-10-10---10-10---|
|--9--9--9--9--9--9----9--9---|--9--9--9--9--9--9----9--9---|
|-----------------------------|-----------------------------|
|-----------------------------|-----------------------------|
|-----------------------------|-----------------------------|
|
|--5-----5--5-------------5-5-|--5-----5--5-------------5-5-|
|--5-----7--5-------------5-5-|--5-----5--5-------------5-5-|
|--6-----7--6-------------6-6-|--7-----6--6-------------6-6-|
|--7-----7--7-------------7-7-|--7-----7--7-------------7-7-|
|-----------------x-x--x------|-----------7-----x-x--x------|
|--5-----5--5-------------5-5-|--5-----5--5-------------5-5-|

         D  A                    D9    A
|-----------------------------|-----------------------------|
|-10-10-10-10-10-10---10-10---|-10-10-10-10-10-10---10-10---|
|--9--9--9--9--9--9----9--9---|--9--9--9--9--9--9----9--9---|
|-----------------------------|-----------------------------|
|-----------------------------|-----------------------------|
|-----------------------------|-----------------------------|
|
|--5-----5--5-------------5-5-|--5-----5--5-------------5-5-|
|--5-----7--5-------------5-5-|--5-----5--5-------------5-5-|
|--6-----7--6-------------6-6-|--7-----6--6-------------6-6-|
|--7-----7--7-------------7-7-|--7-----7--7-------------7-7-|
|-----------------x-x--x------|-----------7-----x-x--x------|
|--5-----5--5-------------5-5-|--5-----5--5-------------5-5-|

         D  A                 D9    A
|--------------------------|------------------------------|
|-10-10-10-10-10--10-10-10-|-10-10-10-10-10--10---10-10---|
|--9--9--9--9--9---9--9--9-|--9--9--9--9--9---9----9--9---|
|--------------------------|------------------------------|
|--------------------------|------------------------------|
|--------------------------|------------------------------|
|
|--5-----5--5-(5)--------5-|--5-----5--5-(5)----------5-5-|
|--5-----7--5-(5)--------5-|--5-----5--5-(5)----------5-5-|
|--6-----7--6-(6)--------6-|--7-----6--6-(6)----------6-6-|
|--7-----7--7-(7)--------7-|--7-----7--7-(7)----------7-7-|
|--------------------------|-----------7-(7)--x-x--x------|
|--5-----5--5-(5)--------5-|--5-----5--5-(5)----------5-5-|

         D     A               D       A
|---------------------------|---------------------------------|
|-10-10-10-10-10-10-10-10---|-10-10---10-10---10-10---10-10---|
|--9--9--9--9--9--9--9--9---|--9--9----9--9----9--9----9--9---|
|---------------------------|---------------------------------|
|---------------------------|---------------------------------|
|---------------------------|---------------------------------|
|
|--5-----5-----5--5--5------|---------------------------------|
|--5-----5-----5--5--5------|---------------------------------|
|--6-----6-----6--6--6------|--7-------7-------7--7-7--7------|
|--7-----7-----7--7--7------|---------------------------------|
|-----------------------x-x-|-----x-x-----x-x-----------------|
|--5-----5-----5--5--5------|---------------------------------|

         D  A                    D         A
|-----------------------------|----------------------------------------------|
|-10-10-10-10-10-10-10---10---|-10---10---10-----10---10----10---10-----10---|
|--9--9--9--9--9--9--9----9---|--9----9----9------9----9-----9----9------9---|
|-----------------------------|----------------------------------------------|
|-----------------------------|----------------------------------------------|
|-----------------------------|----------------------------------------------|
|
|-----------------------------|----5-----------------------------------------|
|--------------------x-8------|--5------5------------------------------------|
|---------------------------7-|------------5b6------7--5b6-----7--5b6--------|
|-----------------------------|----------------7----------------------7----5-|
|-----------------------------|----------------------------------------------|
|-----------------------------|----------------------------------------------|

         D  A                  D9    A
|---------------------------|-------------------------------|
|-10-10-10-10-10-10-10-10---|-10-10-10-10-10-10---10---10---|
|--9--9--9--9--9--9--9--9---|--9--9--9--9--9--9----9----9---|
|---------------------------|-------------------------------|
|---------------------------|-------------------------------|
|---------------------------|-------------------------------|
|
|--------5--5---------------|--5-----5--5-------------------|
|--------7--5---------------|--5-----5--5-------------------|
|--------7--6---------------|--7-----6--6-------------------|
|--7-----7--7---------------|--7-----7--7-------------------|
|--------------x--x--x--x-x-|-----------7-----x-x--x-x--x-x-|
|--------5--5---------------|--5-----5--5-------------------|

         D  A                    D9    A
|-----------------------------|---------------------------|
|-10-10-10-10-10-10---10-10---|-10-10-10-10-10-10-10-10---|
|--9--9--9--9--9--9----9--9---|--9--9--9--9--9--9--9--9---|
|-----------------------------|---------------------------|
|-----------------------------|---------------------------|
|-----------------------------|---------------------------|
|
|--5-----5--5-----------------|--5-----5--5---------------|
|--5-----7--5-----------------|--5-----5--5---------------|
|--6-----7--6-----------------|--7-----6--6---------------|
|--7-----7--7-----------------|--7-----7--7-----7---
Outros vídeos desta música
    254 exibições
      • ½ Tom
      • A
      • Bb
      • B
      • C
      • Db
      • D
      • Eb
      • E
      • F
      • F#
      • G
      • Ab
    • Adicionar à lista

    Afinação da cifra

    Afinador online

      0 comentários

      Ver todos os comentários

      Entre para o Cifra Club PRO

      Tenha acesso a benefícios exclusivos no App e no Site

      • Chega de anúncios

      • Badges exclusivas

      • Mais recursos no app do Afinador

      • Atendimento Prioritário

      • Aumente seu limite de lista

      • Ajude a produzir mais conteúdo

      Cifra Club Pro

      Aproveite o Cifra Club com benefícios exclusivos e sem anúncios
      Cifra Club Pro
      Aproveite o Cifra Club com benefícios exclusivos e sem anúncios
      Ops (: Contenido disponible sólo en portugués.
      OK