Cifra Club

Aprenda

Eifersucht

Rammstein

Cifra: Principal (violão e guitarra)
tom: G
Drop D tuning
|-e-|
|-B-|
|-G-|
|-D-|
|-A-|
|-D-|

Keyboard Intro:
|--------------------|--------------------|
|--------------------|--------------------|
|--------------------|--------------------|
|-2--2-2-2--2--2-4-5-|-2--2-2-2--2--2-0---|
|--------------------|------------------2-|
|--------------------|--------------------|

Riff 1:
|----------------------------|
|----------------------------|
|----------------------------|
|----------------------------|
|-2--2--3-2-2--2--2-2--3/5---|
|-2--2--3-2-2--2--2-2--3/5---|
  .  .  . . .  .  . .

Riff 2:
|----------------------------|
|----------------------------|
|----------------------------|
|----------------------------|
|-0---2-3-0---0-2-3----------|
|-0---2-3-0---0-2-3----------|
Composição de Rammstein
Colaboração e revisão:
  • Miguel J'
  • Vítor Scarpato
2.277 exibições
    • ½ Tom
    • A
    • Bb
    • B
    • C
    • Db
    • D
    • Eb
    • E
    • F
    • F#
    • G
    • Ab
  • Adicionar à lista

    0 comentários

    Ver todos os comentários

    Conseguiu tocar?

    1 Tocaram 0 Ainda não

    Grave um vídeo tocando Eifersucht e nos envie!

    00:00 / 00:00
    outros vídeos desta música
    repetir qualidade Automático
    Outros vídeos desta música
    00:00 / 00:00
    Automático

    Cifra Club Pro

    Aproveite o Cifra Club com benefícios exclusivos e sem anúncios
    Cifra Club Pro
    Aproveite o Cifra Club com benefícios exclusivos e sem anúncios
    OK