Notificações Amigos pendentes

      Rammstein

      Frühling In Paris

      695 exibições
      Tom: A
      (verse 1 - 4x)
      
      D |--------------------------|--------------------------|
      A |--------------------------|--------------------------|
      F |-----4-----------4--------|-----4-----------4--------|
      C |--------6-----------6-----|--------6-----------6-----|
      G |-----------6-----------6--|-----------6-----------6--|
      D |--4-----------4-----------|--4-----------4-----------|
      
      
      |--------------------------|--------------------------|
      |-----0-----------0--------|--------------------------|
      |--------1-----------1-----|-----4-----------4--------|
      |-----------2-----------2--|--------6-----------6-----|
      |--------------------------|-----------6-----------6--|
      |--0-----------0-----------|--4-----------4-----------|
      
      
      (pre-chorus 1)
      
      |--------------------------|--------------------------|
      |-----7-----------7--------|-----5-----------5--------|
      |--------8-----------8-----|--------6-----------6-----|
      |-----------8-----------8--|-----------6-----------6--|  3x's
      |--6-----------6-----------|--4-----------4-----------|
      |--------------------------|--------------------------|
      
      
      |--------------------------|--------------------------|
      |--------------------------|--------------------------|
      |-----3-----------3--------|-----3-----------3--------|
      |--------4-----------4-----|--------4-----------4-----|
      |-----------4-----------4--|-----------4-----------4--|
      |--2-----------2-----------|--2-----------2-----------|
      
      
      (chorus 1)
      
      |--------------------------|--------------------------|--------------------------|
      |-----4-----------4--------|-----4-----------4--------|--------------------------|
      |--------4-----------4-----|--------4-----------4-----|-----4-----------4--------|
      |-----------4-----------4--|-----------4-----------4--|--------6-----------6-----|
      |--2-----------2-----------|--2-----------2-----------|-----------6-----------6--|
      |--------------------------|--------------------------|--4-----------4-----------|
      
      
      |--------------------------|--------------------------|--------------------------|
      |--------------------------|-----4-----------4--------|-----4-----------4--------|
      |-----4-----------4--------|--------4-----------4-----|--------4-----------4-----|
      |--------6-----------6-----|-----------4-----------4--|-----------4-----------4--|
      |-----------6-----------6--|--2-----------2-----------|--2-----------2-----------|
      |--4-----------4-----------|--------------------------|--------------------------|
      
      
      |--------------------------|--------------------------|--------------------------|
      |--------------------------|--------------------------|--------------------------|
      |-----4-----------4--------|-----4-----------4--------|-----3-----------3--------|
      |--------6-----------6-----|--------6-----------6-----|--------4-----------4-----|
      |-----------6-----------6--|-----------6-----------6--|-----------4-----------4--|
      |--4-----------4-----------|--4-----------4-----------|--2-----------2-----------|
      
      
      |--------------------------|--------------------------|--------------------------|
      |--------------------------|-----0-----------0--------|-----0-----------0--------|
      |-----3-----------3--------|--------1-----------1-----|--------1-----------1-----|
      |--------4-----------4-----|-----------2-----------2--|-----------2-----------2--|
      |-----------4-----------4--|--------------------------|--------------------------|
      |--2-----------2-----------|--0-----------0-----------|--0-----------0-----------|
      
      
      (verse 2 - 5x)
      
      |--------------------------|--------------------------|
      |--------------------------|--------------------------|
      |-----4-----------4--------|-----4-----------4--------|
      |--------6-----------6-----|--------6-----------6-----|
      |-----------6-----------6--|-----------6-----------6--|
      |--4-----------4-----------|--4-----------4-----------|
      
      
      |--------------------------|--------------------------|
      |-----0-----------0--------|--------------------------|
      |--------1-----------1-----|-----4-----------4--------|
      |-----------2-----------2--|--------6-----------6-----|
      |--------------------------|-----------6-----------6--|
      |--0-----------0-----------|--4-----------4-----------|
      
      
      (pre-chorus 2)
      
      |--------------------------|--------------------------|
      |-----7-----------7--------|-----5-----------5--------|
      |--------8-----------8-----|--------6-----------6-----|
      |-----------8-----------8--|-----------6-----------6--|  3x's
      |--6-----------6-----------|--4-----------4-----------|
      |--------------------------|--------------------------|
      
      
      |--------------------------|--------------------------|
      |--------------------------|--------------------------|
      |-----3-----------3--------|-----3-----------3--------|
      |--------4-----------4-----|--------4-----------4-----|
      |-----------4-----------4--|-----------4-----------4--|
      |--2-----------2-----------|--2-----------2-----------|
      
      
      (chorus 2 - 2x)
      
      |--------------------------|--------------------------|--------------------------
      |--------------------------|--------------------------|--------------------------
      |--------------------------|--------------------------|--------------------------
      |--9--9--9--9--9--9--9--9--|--9--9--9--9--9--9--9--9--|--6--6--6--6--6--6--6--6--
      |--------------------------|--------------------------|--------------------------
      |--7--7--7--7--7--7--7--7--|--7--7--7--7--7--7--7--7--|--4--4--4--4--4--4--4--4--
      
      
      |--------------------------|--------------------------|--------------------------|
      |--------------------------|--------------------------|--------------------------|
      |--------------------------|--------------------------|--------------------------|
      |--6--6--6--6--6--6--6--6--|--9--9--9--9--9--9--9--9--|--9--9--9--9--9--9--9--9--|
      |--------------------------|--------------------------|--------------------------|
      |--4--4--4--4--4--4--4--4--|--7--7--7--7--7--7--7--7--|--7--7--7--7--7--7--7--7--|
      
      
      |--------------------------|--------------------------|--------------------------|
      |--------------------------|--------------------------|--------------------------|
      |--------------------------|--------------------------|--------------------------|
      |--6--6--6--6--6--6--6--6--|--6--6--6--6--6--6--6--6--|--4--4--4--4--4--4--4--4--|
      |--------------------------|--------------------------|--------------------------|
      |--4--4--4--4--4--4--4--4--|--4--4--4--4--4--4--4--4--|--2--2--2--2--2--2--2--2--|
      
      
      |---------------------------|----------------------------------|----------------------------------|
      |---------------------------|----------------------------------|----------------------------------|
      |---------------------------|----------------------------------|----------------------------------|
      |--4--4--4--4--4--4--4--4S--|--14--14--14--14--14--14--14--14--|--14--14--14--14--14--14--14--14--|
      |---------------------------|----------------------------------|----------------------------------|
      |--2--2--2--2--2--2--2--2S--|--12--12--12--12--12--12--12--12--|--12--12--12--12--12--12--12--12--|
      
      
      (verse 3 - 5x)
      
      |--------------------------|--------------------------|
      |--------------------------|--------------------------|
      |-----4-----------4--------|-----4-----------4--------|
      |--------6-----------6-----|--------6-----------6-----|
      |-----------6-----------6--|-----------6-----------6--|
      |--4-----------4-----------|--4-----------4-----------|
      
      
      |--------------------------|--------------------------|
      |-----0-----------0--------|--------------------------|
      |--------1-----------1-----|-----4-----------4--------|
      |-----------2-----------2--|--------6-----------6-----|
      |--------------------------|-----------6-----------6--|
      |--0-----------0-----------|--4-----------4-----------|
      
      
      (pre-chorus 3)
      
      |--------------------------|--------------------------|
      |-----7-----------7--------|-----5-----------5--------|
      |--------8-----------8-----|--------6-----------6-----|
      |-----------8-----------8--|-----------6-----------6--|  3x's
      |--6-----------6-----------|--4-----------4-----------|
      |--------------------------|--------------------------|
      
      
      |--------------------------|--------------------------|--------------------------|
      |--------------------------|--------------------------|--------------------------|
      |-----3-----------3--------|-----3-----------3--------|-----3-----------3--------|
      |--------4-----------4-----|--------4-----------4-----|--------4-----------4-----|
      |-----------4-----------4--|-----------4-----------4--|-----------4-----------4--|
      |--2-----------2-----------|--2-----------2-----------|--2-----------2-----------|
      
      
      (chorus 3 - 3x)
      
      |--------------------------|--------------------------|--------------------------
      |--------------------------|--------------------------|--------------------------
      |--------------------------|--------------------------|--------------------------
      |--9--9--9--9--9--9--9--9--|--9--9--9--9--9--9--9--9--|--6--6--6--6--6--6--6--6--
      |--------------------------|--------------------------|--------------------------
      |--7--7--7--7--7--7--7--7--|--7--7--7--7--7--7--7--7--|--4--4--4--4--4--4--4--4--
      
      
      |--------------------------|--------------------------|--------------------------|
      |--------------------------|--------------------------|--------------------------|
      |--------------------------|--------------------------|--------------------------|
      |--6--6--6--6--6--6--6--6--|--9--9--9--9--9--9--9--9--|--9--9--9--9--9--9--9--9--|
      |--------------------------|--------------------------|--------------------------|
      |--4--4--4--4--4--4--4--4--|--7--7--7--7--7--7--7--7--|--7--7--7--7--7--7--7--7--|
      
      
      |--------------------------|--------------------------|--------------------------|
      |--------------------------|--------------------------|--------------------------|
      |--------------------------|--------------------------|--------------------------|
      |--6--6--6--6--6--6--6--6--|--6--6--6--6--6--6--6--6--|--4--4--4--4--4--4--4--4--|
      |--------------------------|--------------------------|--------------------------|
      |--4--4--4--4--4--4--4--4--|--4--4--4--4--4--4--4--4--|--2--2--2--2--2--2--2--2--|
      
      
      |---------------------------|----------------------------------|----------------------------------|
      |---------------------------|----------------------------------|----------------------------------|
      |---------------------------|----------------------------------|----------------------------------|
      |--4--4--4--4--4--4--4--4S--|--14--14--14--14--14--14--14--14--|--14--14--14--14--14--14--14--14--|
      |---------------------------|----------------------------------|----------------------------------|
      |--2--2--2--2--2--2--2--2S--|--12--12--12--12--12--12--12--12--|--12--12--12--12--12--12--12--12--|
      
      
      and end with |-------------------|
                   |-------------------|
                   |-------------------|
                   |--6----------------|
                   |--6----------------|
                   |--4----------------|
      
      
      W - whole
      H - half
      Q - quarter
      E |- 8th
      S - 16th
      T - 32nd
      X - 64th
      . - note dotted
      |-n-|  - n-tuplets
      
      L - tied note
      x - dead note
      G |- grace note
      (n) - ghost note
      > - accentuded note
      NH - natural harmonic
      AH - artificial harmonic
      TH - tapped harmonic
      SH - semi harmonic
      PH - pitch harmonic
      h - hammer on
      p - pull off
      B |- bend
      br - bendRelease
      pb - preBend
      pbr - preBendRelease
      brb - bendReleaseBend
      \n/ - tremolo bar dip
      \n - tremolo bar dive
      -/n - tremolo bar Release up
      /n\ - tremolo bar inverted dip
      /n - tremolo bar return
      -\n - tremolo bar Release down
      S - shift slide
      s - legato slide
      / -  slide into from below or out of upwards
      \ -  slide into from above or out of downwards
      ~ - vibrato
      W - wide vibrato
      tr - trill
      TP - tremolo picking
      T - tapping
      S - slap
      P - pop
      < - fade in
      ^ - brush up
      v - brush down

      Comentários 0

      140 .
      140 cancelar

      conseguiu tocar?

      covers

      Grave um vídeo tocando Frühling In Paris e mande pra gente!

      Ex.: http://www.youtube.com/watch?v=0IvSvIwGdwk
      ver covers de outras músicas »
      0:00 / 0:00

      Capítulos

        play/pausefechar subir/descer velocidade
        6ª corda E5ª corda A4ª corda D3ª corda G2ª corda B1ª corda E
          acordes
          publicidade
          fechar
          ok