Cifra Club

Mann Gegen Mann

Rammstein

Cifra: Principal (violão e guitarra)
Selo Cifra Club: esta cifra foi revisada para atender aos critérios oficiais da nossa Equipe de Qualidade.
tom: F
    Intro Bass (Oli Riedel) + Till

E|--------------------------------------------------------------| I
B|--------------------------------------------------------------| I
G|--------------------------------------------------------------| I
D|--0--8--0--5--3--5----0--8--0--5--3--5------------------------| I

    Riff 1 (Richard & Paul)

E|--------------------------------------------------------------| I
B|--------------------------------------------------------------| I
G|-----------_2_---------------------_2_------------------------| I
D|--0--8--0--5-5--0p3-5-----0--8--0--5-5--0p3--5----------------| I
A|--0--8--0--5-5--0p3-5-----0--8--0--5-5--0p3--5----------------| I
E|--0--8--0--5-5--0p3-5-----0--8--0--5-5--0p3--5----------------| I
  
   (Riff 1 - clean)

    
    Riff 2 (Richard & Paul)

E|--------------------------------------------------------------| I
B|--------------------------------------------------------------| I
G|--------------------------------------------------------------| I
D|--10h12-12--10h12-12--10-12-12---10h12-12--10h12-12--10-12-12-| I
A|--10h12-12--10h12-12--10-12-12---10h12-12--10h12-12--10-12-12-| I
E|--10h12-12--10h12-12--10-12-12---10h12-12--10h12-12--10-12-12-| I
    
 
E|--------------------------------------------------------------| I
B|--------------------------------------------------------------| I
G|--------------------------------------------------------------| I
D|--10p8-8--10p8-8--10-8-8--10p8-8--10p8-8--10-8-8--------------| I
A|--10p8-8--10p8-8--10-8-8--10p8-8--10p8-8--10-8-8--------------| I
E|--10p8-8--10p8-8--10-8-8--10p8-8--10p8-8--10-8-8--------------| I
                                                         (+ keyboard solo)

    
    Riff 3 (clean part - Paul)
    
E|------------------------------------------| I
B|----------6-------6-------5-------5-------| I
G|--------7---7---7---7---7---7---7---7-----| I
D|------7-------7-------5-------5-----------| I
A|------------------------------------------| I
E|------------------------------------------| I

E|------------------------------------------| I
B|----------6-------6-------5-------5-------| I
G|--------7---7---7---7---7---7---7---7-----| I
D|------7-------7-------5-------5-----------| I
A|------------------------------------------| I
E|------------------------------------------| I 


    Riff 4 (P.M. lighter dist.guitar - Richard) (Riff 3 + Riff 4)

E|------------------------------------------| I
B|------------------------------------------| I
G|------------------------------------------| I
D|---0-0-0--8-8-8--0-0-0--5-5-5--3-3--5-5---| I
A|---0-0-0--8-8-8--0-0-0--5-5-5--3-3--5-5---| I
E|---0-0-0--8-8-8--0-0-0--5-5-5--3-3--5-5---| I

E|------------------------------------------| I
B|------------------------------------------| I
G|------------------------------------------| I
D|---0-0-0--8-8-8--0-0-0--5-5-5--3-3--5-5---| I
A|---0-0-0--8-8-8--0-0-0--5-5-5--3-3--5-5---| I
E|---0-0-0--8-8-8--0-0-0--5-5-5--3-3--5-5---| I
Outros vídeos desta música
    154 exibições
      • ½ Tom
      • A
      • Bb
      • B
      • C
      • Db
      • D
      • Eb
      • E
      • F
      • F#
      • G
      • Ab
    • Adicionar à lista

    Afinação da cifra

    Afinador online

      0 comentários

      Ver todos os comentários

      Entre para o Cifra Club PRO

      Tenha acesso a benefícios exclusivos no App e no Site

      • Chega de anúncios

      • Badges exclusivas

      • Mais recursos no app do Afinador

      • Atendimento Prioritário

      • Aumente seu limite de lista

      • Ajude a produzir mais conteúdo

      Cifra Club Pro

      Aproveite o Cifra Club com benefícios exclusivos e sem anúncios
      Cifra Club Pro
      Aproveite o Cifra Club com benefícios exclusivos e sem anúncios
      OK