Cifra Club

Aprenda

Mein Teil

Rammstein

Cifra: Principal (violão e guitarra)
tom: C
(intro)
D |------------------------------------
A |------------------------------------
F |------------------------------------
C |------2h0h22-0h2h5------------------
G |------2h0h22-0h2h5------------------
C |------2h0h22-0h2h5------------------

(Depois que acabar a intro faça esse riff ate entrar o teclado)

D |------------------------------------
A |------------------------------------
F |------------------------------------
C |------0h2---------------------------
G |------0h2---------------------------
C |------0h2---------------------------

Pre Chorus = Faça esse riff
D |------------------------------------------
A |------------------------------------------
F |------------------------------------------  "Denn du bist was du ißt..."
C |--20h2h5----2h0h22-0h2h5------------------
G |--20h2h5----2h0h22-0h2h5------------------
C |--20h2h5----2h0h22-0h2h5------------------

Refrain:
D |------------------------------------------           "Mein Teil (Nein)
A |------------------------------------------            Mein Teil (Nein)..."
F |------------------------------------------
C |------222200033---------------------------
G |------222200033---------------------------
C |------222200033---------------------------

    Repete 2x riffs na mesma ordem durante o segundo verso
D |------------------------------------------
A |------------------------------------------
F |------------------------------------------  "Dazu ein guter Wein und zarter..."
C |------222222223333/7777-------------------
G |------222222223333/7777-------------------
C |------222222223333/7777-------------------

D |------------------------------------------
A |------------------------------------------
F |------------------------------------------
C |------2222222233330000--------------------
G |------2222222233330000--------------------
C |------2222222233330000--------------------

Letra:

Heute treff' ich einen Herrn
Der hat mich zum Fressen gern
Weiche Teile und auch harte
Stehen auf der Speisekarte
Denn du bist was du ißt
Und ihr wißt was es ist
Mein Teil (Nein)
Mein Teil (Nein)
Denn das ist Mein Teil (Nein)
Mein Teil (Nein)
Die stumpfe Klinge gut und recht
Ich blute stark und mir ist schlecht
Muß ich auch mit der Ohnmacht kämpfen
Ich esse weiter unter Krämpfen
Ist doch so gut gewürzt und so schön flambiert
Und so liebevoll auf Porzellan serviert
Dazu ein guter Wein und zarter Kerzenschein
Ja da laß ich mir Zeit etwas Kultur muß sein
Denn du bist was du ißt
Und ihr wißt was es ist
Mein Teil (Nein)
Mein Teil (Nein)
Denn das ist Mein Teil (Nein)
Yes it's Mein Teil (Nein)
Ein Schrei wird zum Himmel fahren
Schneidet sich durch Engelsscharen
Vom Wolkendach fällt Federfleisch
Auf meine Kindheit mit Gekreisch
Es ist Mein Teil (Nein)
Mein Teil (Nein)
Denn das ist Mein Teil (Nein)
Mein Teil (Nein)
Composição de Oliver Riedel / Paul Landers / Rammstein / Richard Z. Kruspe
Colaboração e revisão:
  • Daniel Souza
8.938 exibições
    • ½ Tom
    • A
    • Bb
    • B
    • C
    • Db
    • D
    • Eb
    • E
    • F
    • F#
    • G
    • Ab
  • Adicionar à lista

    0 comentários

    Ver todos os comentários

    Conseguiu tocar?

    3 Tocaram 0 Ainda não

    Grave um vídeo tocando Mein Teil e nos envie!

    00:00 / 00:00
    Outros vídeos desta música
    Repetir Qualidade Automático
    Outros vídeos desta música
    00:00 / 00:00
    Automático

    Cifra Club Pro

    Aproveite o Cifra Club com benefícios exclusivos e sem anúncios
    Cifra Club Pro
    Aproveite o Cifra Club com benefícios exclusivos e sem anúncios
    OK