Cifra Club

Aprenda

Moskau

Rammstein

Cifra: Principal (violão e guitarra)
tom: Ab
 A musica eh quase toda assim...

Riff1
    Ab5      Bb5       E5
E|----4------------6----------0~-------------------- |
A|----6------------8----------2~-------------------- |
D|-------------------------------------------------- |   
G|-------------------------------------------------- | 
B|-------------------------------------------------- |
e|-------------------------------------------------- |
Riff2
   Ab5       Bb5        E5    B5      Bb5
E|----4------------6----------0~---7---------6------ |
A|----6------------8----------2~---9--------8------- |
D|-------------------------------------------------- |   
G|-------------------------------------------------- | 
B|-------------------------------------------------- |
e|-------------------------------------------------- |
Riff1
    Ab5      Bb5       E5
E|----4------------6----------0~-------------------- |
A|----6------------8----------2~-------------------- |
D|-------------------------------------------------- |   
G|-------------------------------------------------- | 
B|-------------------------------------------------- |
e|-------------------------------------------------- |
Riff3
    Ab5      F#5       E5
E|----4------------2----------0~-------------------- |
A|----6------------4----------2~-------------------- |
D|-------------------------------------------------- |   
G|-------------------------------------------------- | 
B|-------------------------------------------------- |
e|-------------------------------------------------- |
(Nessa ultima parte, as vezes vem um B5 e Bb5, igual o riff2...)


 Tem uma parte que dai vem um "break" +/- assim oh... 
Break
   Db5*      A5 / Bb5*        A5*         D5 / Eb5
E|----9~----------------------------------10/11~---- |
A|------------11/12---------11---------------------- |
D|-------------------------------------------------- |   
G|-------------------------------------------------- | 
B|-------------------------------------------------- |
e|-------------------------------------------------- |

(essa parte ai seria meio disorcida, mas eu nao sei bem como eh...)

Solo by me.
1ª Parte

e|-------------------------------------------------- |
B|--12-------12---11---9------------9--------------- |
G|-------8-----------------11----------------------- |
D|------------------------------9------------------- |
A|-------------------------------------------------- |
E|-------------------------------------------------- |

e|-------------------------------------------------- |
B|--9--11-12-----12-11--9--------------------------- |
G|------------8------------11----------------------- |
D|------------------------------9~------------------ |
A|-------------------------------------------------- |
E|-------------------------------------------------- |

2ª Parte

e|-------------------------------------------------- |
B|--12-------12---11---9------------9--------------- |
G|-------8-----------------11----------------------- |
D|------------------------------9------------------- |
A|-------------------------------------------------- |
E|-------------------------------------------------- |

e|-------------------------------------------------- |
B|--9--11-12-----12-11--9--------------------------- |
G|------------8------------11---8~------------------ |
D|-------------------------------------------------- |
A|-------------------------------------------------- |
E|-------------------------------------------------- |

Obs: Este solo foi tirado de ouvido com afinação padrão.
Qualquer erro, fiquem avontade para corrigir.
Composição de Christian Doktor Lorenz / Christoph Doom Schneider / Paul Landers / Rammstein / Richard Z. Kruspe / Till Lindemann
Colaboração e revisão:
  • Rafael Marques
  • Miguel Polli
8.558 exibições
    • ½ Tom
    • A
    • Bb
    • B
    • C
    • Db
    • D
    • Eb
    • E
    • F
    • F#
    • G
    • Ab
  • Adicionar à lista

    0 comentários

    Ver todos os comentários

    Conseguiu tocar?

    2 Tocaram 0 Ainda não

    Grave um vídeo tocando Moskau e nos envie!

    00:00 / 00:00
    Outros vídeos desta música
    Repetir Qualidade Automático
    Outros vídeos desta música
    00:00 / 00:00
    Automático

    Cifra Club Pro

    Aproveite o Cifra Club com benefícios exclusivos e sem anúncios
    Cifra Club Pro
    Aproveite o Cifra Club com benefícios exclusivos e sem anúncios
    OK