Cifra Club

Aprenda

Pussy

Rammstein

Cifra: Principal (violão e guitarra)
Já pensou em usar uma coleção de roupas do Cifra Club? Responda as perguntas abaixo e nos ajude nessa missão! →
tom: C
(tuning D|A|F|C|G|C)

(intro - chorus)

(guitar I)
D |-----------------|-----------------|-----------------|-----------------|
A |-----------------|-----------------|-----------------|-----------------|
F |-----------------|-----------------|-----------------|-----------------|
C |-2-2-2-2-2-2-2-2-|-0-0-0-0-0-0-0-0-|-9-9-9-9-9-9-9-9-|-5-5-5-5-5/7-7-7-|
G |-2-2-2-2-2-2-2-2-|-0-0-0-0-0-0-0-0-|-9-9-9-9-9-9-9-9-|-5-5-5-5-5/7-7-7-|
C |-2-2-2-2-2-2-2-2-|-0-0-0-0-0-0-0-0-|-9-9-9-9-9-9-9-9-|-5-5-5-5-5/7-7-7-|

D |-----------------|-----------------|-----------------|-----------------|
A |-----------------|-----------------|-----------------|-----------------|
F |-----------------|-----------------|-----------------|-----------------|
C |-2-2-2-2-2-2-2-2-|-0-0-0-0-0-0-0-0-|-9-9-9-9-9-9-9-9-|-5-5-5-5-4-4-4-4-|
G |-2-2-2-2-2-2-2-2-|-0-0-0-0-0-0-0-0-|-9-9-9-9-9-9-9-9-|-5-5-5-5-4-4-4-4-|
C |-2-2-2-2-2-2-2-2-|-0-0-0-0-0-0-0-0-|-9-9-9-9-9-9-9-9-|-5-5-5-5-4-4-4-4-|

(guitar II)
D |-----------------|-----------------|-----------------|-----------------|
A |-----------------|-----------------|-----------------|-----------------|
F |-----------------|-----------------|-----------------|-----------------|
C |-2-2-2-2-2-2-2-2-|-7-7-7-7-7-7-7-7-|-9-9-9-9-9-9-9-9-|-5-5-5-5-5/7-7-7-|
G |-2-2-2-2-2-2-2-2-|-5-5-5-5-5-5-5-5-|-9-9-9-9-9-9-9-9-|-5-5-5-5-5/7-7-7-|
C |-2-2-2-2-2-2-2-2-|-0-0-0-0-0-0-0-0-|-9-9-9-9-9-9-9-9-|-5-5-5-5-5/7-7-7-|

D |-----------------|-----------------|-----------------|-----------------|
A |-----------------|-----------------|-----------------|-----------------|
F |-----------------|-----------------|-----------------|-----------------|
C |-2-2-2-2-2-2-2-2-|-7-7-7-7-7-7-7-7-|-9-9-9-9-9-9-9-9-|-5-5-5-5-4-4-4-4-|
G |-2-2-2-2-2-2-2-2-|-5-5-5-5-5-5-5-5-|-9-9-9-9-9-9-9-9-|-5-5-5-5-4-4-4-4-|
C |-2-2-2-2-2-2-2-2-|-0-0-0-0-0-0-0-0-|-9-9-9-9-9-9-9-9-|-5-5-5-5-4-4-4-4-|

(pre-Chorus) ("just a little bitch...")

(guitar I)
D |-------------------------|     |-------------------------|-------------------------|
A |-------------------------|     |-------------------------|-------------------------|
F |-12-12-12-12-12-12-12-12-| x 2 |-14-14-14-14-14-14-14-14-|-16-16-16-16-16-16-16-16-|
C |-x--x--x--x--x--x--x--x--|     |-x--x--x--x--x--x--x--x--|-x--x--x--x--x--x--x--x--|
G |-10-10-10-10-10-10-10-10-|     |-12-12-12-12-12-12-12-12-|-14-14-14-14-14-14-14-14-|
C |-------------------------|     |-------------------------|-------------------------|

(guitar II)
D |-------------------------|     |-------------------------|-------------------------|
A |-------------------------|     |-------------------------|-------------------------|
F |-------------------------| x 2 |-------------------------|-------------------------|
C |-------------------------|     |-------------------------|-------------------------|
G |-------------------------|     |-------------------------|-9--9--9--9--9--9--9--9--|
C |-------------------------|     |-------------------------|-9--9--9--9--9--9--9--9--|
                                                              PM....................]
(heavy riff) ("Germany...")

(both guitars)
D |------------|----------------|
A |------------|----------------|
F |------------|----------------| x 4
C |-------5----|---------7-5-4--|
G |-2-5-2-3----|---2-5-2-5-3-2--|
C |-2-5-2------|---2-5-2--------|

(bridge)

(guitar I)
D |----------------------|-------------|
A |----------------------|-------------|
F |----------------------|-------------|
C |-2----0----9----5--7--|-2----0----9-|
G |-2----0----9----5--7--|-2----0----9-|
C |-2----0----9----5--7--|-2----0----9-|

(guitar II)
D |----------------------|-------------|
A |----------------------|-------------|
F |----------------------|-------------|
C |-2----7----9----5--7--|-2----7----9-|
G |-2----5----9----5--7--|-2----5----9-|
C |-2----0----9----5--7--|-2----0----9-|
Composição de Christian Lorenz / Christoph Doom Schneider / Oliver Riedel / Paul Landers / Richard Z. Kruspe / Till Lindemann
Colaboração e revisão:
  • Lizandra
  • Lucas Bauer
12.260 exibições
    • ½ Tom
    • A
    • Bb
    • B
    • C
    • Db
    • D
    • Eb
    • E
    • F
    • F#
    • G
    • Ab
  • Adicionar à lista

    0 comentários

    Ver todos os comentários

    Conseguiu tocar?

    11 Tocaram 0 Ainda não

    Grave um vídeo tocando Pussy e nos envie!

    00:00 / 00:00
    Outros vídeos desta música
    Repetir Qualidade Automático
    Outros vídeos desta música
    00:00 / 00:00
    Automático

    Cifra Club Pro

    Aproveite o Cifra Club com benefícios exclusivos e sem anúncios
    Cifra Club Pro
    Aproveite o Cifra Club com benefícios exclusivos e sem anúncios
    OK