Cifra Club

Aprenda

Reise, reise

Rammstein

Cifra: Principal (violão e guitarra)
Já pensou em usar uma coleção de roupas do Cifra Club? Responda as perguntas abaixo e nos ajude nessa missão! →
tom: E
Vou separar a música em compassos:

Compasso 1 e 2: Não tem guitarra, fórmula do compasso 4x4
Agora montarei a tab dos compassos 3 a 16
***Atenção para a afinação***

D
A
F
C
G
C----1---4----8---6 (4x essa tab)compassos 3 ao 10

D
A
F-------------------------------6---6
C----1---4----8---6----1---1----6---6
G----1---4----8---6----1---1----4---4  (1x essa parte) compassos 11 ao 14
C----1---4----8---6----1---1

D
A
F
C----1-0-1-------1-0-1--1-0-1------0-1-0-----
G----1-0-1-------1-0-1--1-0-1------0-1-0----- (4x essa parte) compasso 15
C----1-0-1-------1-0-1--1-0-1------0-1-0-----

D
A
F
C----1-0-1----------
G----1-0-1----------  (1x) compasso 21
C----1-0-1----------

Agora são os compassos de 22 a 25, repita o formato de 11 a 14
Em seguida vem o compasso 26, repita o formato do 15
A guitarra volta no compasso 32, repita o formato do 21

Agora abaixo estarão os compassos 33 a 37

D
A
F-------------------------------6---6----6---6
C----1---4----8---6----1---1----6---6----6---6
G----1---4----8---6----1---1----4---4----4---4
C----1---4----8---6----1---1

Dividirei agora os compassos 41 a 52 em dois grupos:

1º grupo: 41 a 49

D
A
F-------------------------------6---6-------------------------------6---6
C----1---4----8---6----1---1----6---6----1---4----8---6----1---1----6---6----1---4
G----1---4----8---6----1---1----4---4----1---4----8---6----1---1----4---4----1---4
C----1---4----8---6----1---1-------------1---4----8---6----1---1-------------1---4

2º grupo: 50 a 52

D
A
F----------------------6---6
C----8---6----1---1----6---6
G----8---6----1---1----4---4
C----8---6----1---1

Pronto, fim da música, se tiver dúvidas, mande-me um e-mail



-=-=-=-=-=-=-=-=-=-=-=-=-=-=-=-=-=-=-=-=-=-=-=-=-=-=-=-=-=-=-=-=-=-=-=
Sequência da música (com letra):

Part "A"

Auch auf dem Wellen wird gefochten
Wo Fisch und Fleisch zur See geflochten
Der eine sticht die Lanz' im Heer
Der andere wirft sie in das Meer

Ahoi

Part "B" 

Reise, Reise Seemann Reise
Jeder tut's auf seine Weise
Der eine stöβt den Speer zum Mann
Der andere zum Fische dann

Reise, Reise Seemann Reise
Und die Wellen weinen leise
In ihrem Blute steckt ein Speer
Bluten leise in das Meer

Part "A"

Die Lanze muβ im Fleisch ertrinken
Fisch uns Mann zur Tiefe sinken
Wo die schwarze Seele wohnt
Ist kein Licht am Horizont

Ahoi

Part "B"

Reise, Reise Seemann Reise
Jeder tut's auf seine Weise
Der eine stöβt den Speer zum Mann
Der andere zum Fische dann

Reise, Reise Seemann Reise
Und die Wellen weinen leise
In ihrem Blute steckt ein Speer
Bluten leise in das Meer

Reise, Reise Seemann Reise
Und die Wellen weinen leise
In ihrem Herzen steckt ein Speer
Bluten sich am Ufer leer
Composição de Oliver Riedel / Paul Landers / Rammstein / Richard Z. Kruspe
19.428 exibições
    • ½ Tom
    • A
    • Bb
    • B
    • C
    • Db
    • D
    • Eb
    • E
    • F
    • F#
    • G
    • Ab
  • Adicionar à lista

    0 comentários

    Ver todos os comentários

    Conseguiu tocar?

    8 Tocaram 0 Ainda não

    Grave um vídeo tocando Reise, reise e nos envie!

    00:00 / 00:00
    Outros vídeos desta música
    Repetir Qualidade Automático
    Outros vídeos desta música
    00:00 / 00:00
    Automático

    Cifra Club Pro

    Aproveite o Cifra Club com benefícios exclusivos e sem anúncios
    Cifra Club Pro
    Aproveite o Cifra Club com benefícios exclusivos e sem anúncios
    OK