Cifra Club

Chain Saw

Ramones

Tab de baixo: Principal
(intro)
G|-------------------------------------------------------------------------|
D|-7-7-7-7-7-7-7-7-7-------------------9-9-9-9-9-9-9-9-9-------------------|
A|-------------------9-9-9-9-9-9-9-9-9-------------------7-7-7-7-7-7-7-7-7-|
E|-------------------------------------------------------------------------|

(versos)                  (2x)                                  (2x)
G|-------------------------------------|-------------------------------------|
D|-7-7-7-7-7-7-7-7-7-------------------|-9-9-9-9-9-9-9-9-9-------------------|
A|-------------------9-9-9-9-9-9-9-9-9-|-------------------7-7-7-7-7-7-7-7-7-|
E|-------------------------------------|-------------------------------------|

(ponte)
G|-------------------------------------|
D|-------------------------------------|
A|-7-7-7-7-7-7-7-7-7-9-9-9-9-9-9-9-9-9-|
E|-------------------------------------|

(refrão)
G|-------------------------------------|-------------------------------------|
D|-------------------------------------|-7-7-7-7-7-7-7-7-7-7-7-7-7-7-7-7-7-7-|
A|-7-7-7-7-7-7-7-7-7-7-7-7-7-7-7-7-7-7-|-------------------------------------|
E|-------------------------------------|-------------------------------------|

G|-------------------------------------|-------------------------------------|
D|-------------------------------------|-9-9-9-9-9-9-9-9-9-9-9-9-9-9-9-9-9-9-|
A|-7-7-7-7-7-7-7-7-7-7-7-7-7-7-7-7-7-7-|-------------------------------------|
E|-------------------------------------|-------------------------------------|

(final)
G|-------------------------------------|
D|-7-7-7-7-7-7-7-7-7-------------------|
A|-------------------9-9-9-9-9-9-9-9-9-|
E|-------------------------------------|

(ordem)
(intro)
(verso 2x)
(ponte)
(verso 1x)
(ponte)
(refrão)
(verso 1x)
(final 4x no ao vivo - estúdio repete até fade out)
exibições 2.099
Composição: Ramones Colaboração e revisão:
  • Aerson Moreira

0 comentários

mostrar mais comentários

Conseguiu tocar?

0 tocaram 0 ainda não

Grave um vídeo tocando Chain Saw e mande pra gente!

00:00 / 00:00
outros vídeos desta música
repetir qualidade Automático
Outros vídeos desta música
00:00 / 00:00
Automático
OK