Cifra Club

Time Has Come Today

Ramones

Cifra: Principal (violão e guitarra)
Tom: G
Intro :

E|----------------------------------------------------------------|
B|-------7h8h7-------7h8h7-5-------7h8h7-5-7-------7h8h7----------|
G|---7-----------5-----------------------------7------------------|
D|---7-----------5-------------5---------------7------------------|
A|---5-----------3-------------5---------------5------------------|
E|-----------------------------3----------------------------------|

E|----------------------------------------------------------------|
B|-------7h8h7-------7h8h7-5-------7h8h7-5-7-----------7h8h7------|
G|---7-----------5-----------------------------7-7-7--------------|
D|---7-----------5-------------5---------------7-7-7--------------|
A|---5-----------3-------------5---------------5-5-5--------------|
E|-----------------------------3----------------------------------|

Riff 1 :

E|-----------------------------------|
B|-----------------------------------|
G|---7-7-7---5-5-5-----------7-7-7---|
D|---7-7-7---5-5-5---5-5-5---7-7-7---|
A|---5-5-5---3-3-3---5-5-5---5-5-5---|
E|-------------------3-3-3-----------|

Riff 2 :

E|-------------------------------------------------------------------|
B|-------------------------------------------------------------------|
G|---7-7-7-7-7-7-7---5-5-5-5-5-5-5-------------------7-7-7-7-7-7-7---|
D|---7-7-7-7-7-7-7---5-5-5-5-5-5-5---5-5-5-5-5-5-5---7-7-7-7-7-7-7---|
A|---5-5-5-5-5-5-5---3-3-3-3-3-3-3---5-5-5-5-5-5-5---5-5-5-5-5-5-5---|
E|-----------------------------------3-3-3-3-3-3-3-------------------|

Riff 3 :

E|-------|
B|-------|
G|---7---|
D|---7---|
A|---5---|
E|-------|


Riff 1 (6x)

Time has come today
Young hearts can go their way
Can't put it off another day
I don't care what others say
They say we don't listen anyway
Time has come today, hey


Riff 2 (1x)


Riff 1 (8x)

The room has changed today
I have no place to stay
I'm thinking about the subway
Mu love has blown away
My tears have come and gone
Oh'Lord I got to run
I got no home
No, I have no home

E|--------------------------------------------------------------------|
B|-------7h9h7-------7h9h7-5-------7h9h7-5-7-----------7h9h7----------|
G|---7-----------7-----------------------------7-7-7------------------|
D|---7-----------7-------------5---------------7-7-7------------------|
A|---5-----------5-------------5---------------5-5-5------------------|
E|-----------------------------3--------------------------------------|

Riff 1 (8x)

Now the time has come
Nowhere (place) to run
Might get burned up by the sun
But I'll have my fun
I've been loved, pushed (put) aside
I've been crushed by tumbling tide
And my soul has been psychedelicized

Riff 1 (4x)

Now the time has come
There are things to realize
Time has come today
Time has come today

Riff 3 (45x)

Riff 1 (8x)

Now the time has come
Nowhere (place) to run
Might get burned up by the sun
But I'll have my fun
I've been loved, pushed (put) aside
I've been crushed by tumbling tide
And my soul has been psychedelicized

Riff 1 (6x)

Now the time has come
There are things to realize
Time has come today
Time has come today
Time has come today
Time has come today
exibições 4.439
Acordes para:
    Composição: Joseph Chambers / Willie Chambers Colaboração e revisão:
    • Bruno Costa

    0 comentários

    mostrar mais comentários

    Conseguiu tocar?

    1 tocaram 0 ainda não

    Grave um vídeo tocando Time Has Come Today e mande pra gente!

    00:00 / 00:00
    outros vídeos desta música
    repetir qualidade Automático
    Outros vídeos desta música
    00:00 / 00:00
    Automático
    OK