Cifra Club

Aprenda

Fall Back Down

Rancid

Tab de baixo: Principal
Intro
G--------------------------------|X2|
D--------------------------------|X2|
A---7-7------8-9-------0-------7-|X2|
E-79-9---------------------------|X2|

1° Verso
G-|----|-------------------------------------------------------------------
D-|----|-------------------------------------------------------------------
A-|--7-|77777777777777889999999999999999/0000000000000000/7777777777777----
E-|79-9|---------------------------------------------------------------979-

G-----------------------------------------------------------------------------------
D--------------------------------------------------999977776666----999977776666-----
A-77777777777777889999999999999999/0000000000000000------------9999------------9999-
E-----------------------------------------------------------------------------------

Refrão
G----------------------------------|---------------------------------
D----------------------------------|---------------------------------
A-77777788999999990000000077777----|7777778899999999000000007777--7--
E------------------------------979-|----------------------------79-9-

G----------------------------------|X2
D----------------------------------|X2
A-77777788999999990000000077777----|X2
E------------------------------979-|X2

Pós-Refrão
G-----------------------------------------------------66-----------|X2
D------------------------------67899999999999999--7799--9977-------|X2
A-----------------7777777777777-----------------------------9977---|X2
E-9999999999999999----------------------------------------------99-|X2

Solo de Guitarra
G----------------------------------|X3|
D----------------------------------|X3|
A-7777778899999999000000007777--7--|X3|
E-----------------------------79-9-|X3|

2° Verso
G--------------------------------------------------------------------
D--------------------------------------------------------------------
A-77777777777777889999999999999999/0000000000000000/7777777777777----
E----------------------------------------------------------------979-

G-----------------------------------------------------------------------------------
D--------------------------------------------------999977776666----999977776666-----
A-77777777777777889999999999999999/0000000000000---------------9999------------9999-
E-----------------------------------------------------------------------------------

Refrão
G----------------------------------|---------------------------------
D----------------------------------|---------------------------------
A-77777788999999990000000077777----|7777778899999999000000007777--7--
E------------------------------979-|----------------------------79-9-

G----------------------------------|X2
D----------------------------------|X2
A-77777788999999990000000077777----|X2
E------------------------------979-|X2

G-----------------------------------------------------66-----------|X2
D------------------------------67899999999999999--7799--9977-------|X2
A-----------------7777777777777-----------------------------9977---|X2
E-9999999999999999----------------------------------------------99-|X2

Solo de guitarra
G-----------------------------------------------------66-----------|X2
D------------------------------67899999999999999--7799--9977-------|X2
A-----------------7777777777777-----------------------------9977---|X2
E-9999999999999999----------------------------------------------99-|X2

3° Refrão
G----------------------------------|X2
D----------------------------------|X2
A-7-7-----9-9-----0-0-----7-7---7--|X2
E-----------------------------79-9-|X2

G---------------------------------|------------------------6--------
D---------------------------------|---------------------679-97-7----
A-77777788999999990000000077777---|777777889999999900-79------9-97--
E------------------------------979|------------------9------------9-

G---------------------------------|X3|------------------------6--------
D---------------------------------|X3|---------------------679-97-7----
A-77777788999999990000000077777---|X3|777777889999999900-79------9-97--
E------------------------------979|X3|------------------9------------9-

Último solo de guitarra
G----------------------------------|X2|---------------------------------|----------------6----------------
D----------------------------------|X2|---------------------------------|-----------------97-797----------
A-77777788999999990000000077777----|X2|-7777778899999999000000007777--7-|7777778899999999---9---97-797----
E------------------------------979-|X2|-----------------------------79-9|-------------------------9---979-

Final
G---
D---
A-7-
E---



_______________________________________________________
Contribuição: Daniel Martins de Moraes(danielbt@mtv.com.br)
Composição de Lars Frederiksen / Tim Armstrong
8.943 exibições

0 comentários

Ver todos os comentários

Conseguiu tocar?

0 Tocaram 0 Ainda não

Grave um vídeo tocando Fall Back Down e nos envie!

00:00 / 00:00
outros vídeos desta música
repetir qualidade Automático
Outros vídeos desta música
00:00 / 00:00
Automático

Cifra Club Pro

Aproveite o Cifra Club com benefícios exclusivos e sem anúncios
Cifra Club Pro
Aproveite o Cifra Club com benefícios exclusivos e sem anúncios
OK