Cifra Club

Aprenda

Killing Zone

Rancid

Tab de baixo: Principal
verse
G|-------------------------------------|
D|-------------------------------------|
A|------------------44-4-44-4-6666-6-4-|
E|-66-6-66-6-66-6-6--------------------| repeat until pre-chorus

pre-chorus
G|---------------|
D|-6---4-6---4-6-|
A|---4-----4-----|
E|---------------|

chorus
G|---------------------------------|
D|---------------------------------|
A|-----------------4-4-4-4-4-4-4-4-|
E|-6-6-6-6-6-6-6-6-----------------|
normally x4 but i think at the end it's played more

play verse

then pre-chorus followed by chorus

guitar solo
G|-66666666-44444444-------------------|
D|-------------------77777777-44444444-|
A|-------------------------------------|
E|-------------------------------------|x2

G|-8-88-88-10-1010-1010-11-1111-1111|----------8-88-88-10-1010-1010-11-|
D|----------------------------------|----------------------------------|
A|-play till it comes to this----->-|----------------------------------|
E|----------------------------------|----------------------------------|

then just play the chorus all the way through the end

thanks, i think its perfect, please rate and comment
Composição de Lars Frederiksen / Tim Armstrong
265 exibições

0 comentários

Ver todos os comentários

Conseguiu tocar?

0 Tocaram 0 Ainda não

Grave um vídeo tocando Killing Zone e nos envie!

00:00 / 00:00
outros vídeos desta música
repetir qualidade Automático
Outros vídeos desta música
00:00 / 00:00
Automático

Cifra Club Pro

Aproveite o Cifra Club com benefícios exclusivos e sem anúncios
Cifra Club Pro
Aproveite o Cifra Club com benefícios exclusivos e sem anúncios
OK