Cifra Club

Aprenda

Maxwell Murder

Rancid

Cifra: Principal (violão e guitarra)
Já pensou em usar uma coleção de roupas do Cifra Club? Responda as perguntas abaixo e nos ajude nessa missão! →
tom: C
Verse:
G:-----------------------------------------------------------------------
D:--------------------------------------------------------------2-3-5-3-2
A:0-3-4-5----3------0-3-4-5----3------0-3-4-5-555-5-5-5-5-5-3-3----------
E:----------------3-----------------3------------------------------------

Verse continued:
G:----------------------------------
D:----------------------------------
A:3-5-5-5---5-5-5-5-3-3-2-3-----3-5-
E:--------5-----------------3-5-----

Chorus:
G:--------------0-2-0-----------0--------------0-2-0------------
D:3-2-3-2-3-2-3-------3-2-0-2-3--3-2-3-2-3-2-3-------3-2-0------
A:----------------------------------------------------------3--2
E:--------------------------------------------------------------

Chorus continued:
G:--------------0-2-0------------------------------------------
D:3-2-3-2-3-2-3-------3-2-0-------------------------------------
A:--------------------------3-2-5-5-5---5-55-5-5--------------------0
E:------------------------------------5-----------5-55-5-5-1-11-1-1--
Composição de Lars Frederiksen / Matt Freeman / Tim Armstrong
16.373 exibições
    • ½ Tom
    • A
    • Bb
    • B
    • C
    • Db
    • D
    • Eb
    • E
    • F
    • F#
    • G
    • Ab
  • Adicionar à lista

    0 comentários

    Ver todos os comentários

    Conseguiu tocar?

    0 Tocaram 0 Ainda não

    Grave um vídeo tocando Maxwell Murder e nos envie!

    00:00 / 00:00
    Outros vídeos desta música
    Repetir Qualidade Automático
    Outros vídeos desta música
    00:00 / 00:00
    Automático

    Cifra Club Pro

    Aproveite o Cifra Club com benefícios exclusivos e sem anúncios
    Cifra Club Pro
    Aproveite o Cifra Club com benefícios exclusivos e sem anúncios
    OK