Cifra Club

Aprenda

Radio

Rancid

Cifra: Principal (violão e guitarra)
tom: D
RADIO (Versão A)


    D    B    G    A
e|---X----X----X----X----
B|---X----X----X----X----
G|---7-------------------
D|---7----9----5----7----
A|---5----9----5----7----
E|---X----7----3----5----


D             B         G                   D
Never fell in love 'til I fell in love with you
D                 B                    G                    D
Never knew what a good time was 'til I had a good time with you
D                            B                           
If you wanna get the feeling you wanna get it right 
         G                D
Then the music's gotta be loud
D                    B              G       D   A....
Cause when the music hits I feel no pain at all

D           B           G                D
Warm summer night I was drinking with my dad
D           B                 G       D
He tried to give me love that I never had
D                B           G         D
But he gave more love to his bottle of wine
D              B                G       D
So I had to go out find love of another kind

e|-3-5-5-5-5-5-5-3-5-5-5-5-5--5-4-3---5-4-3-5-4-3---5-4-3-
B|-3-5-5-5-5-5-5-3-5-5-5-5-5------------------------------
G|--------------------------------------------------------
D|--------------------------------------------------------
A|--------------------------------------------------------
E|--------------------------------------------------------
     Here it is   here I am  turn it up    fuckin' loud!

D           B           G           D
Radio radio radio radio radio radio radio
D              B     G                D
When I got the music I got a place to go
D           B           G           D
Radio radio radio radio radio radio radio
D              B     G                D  A...
When I got the music I got a place to go

D     B     G             D
Radio clash magnificent seven
D       B              G               D
I was a choir boy they showed me no heaven
D   B     G      D
Two tools surely lost
D    B           G        D
No remorse and ignore the cost

e|-3-5-5-5-5-5-5-3-5-5-5-5-5--5-4-3---5-4-3-5-4-3---5-4-3-
B|-3-5-5-5-5-5-5-3-5-5-5-5-5------------------------------
G|--------------------------------------------------------
D|--------------------------------------------------------
A|--------------------------------------------------------
E|--------------------------------------------------------
     Here it is   here I am  turn it up    fuckin' loud!

D           B           G           D
Radio radio radio radio radio radio radio
D              B     G                D
When I got the music I got a place to go
D           B           G           D
Radio radio radio radio radio radio radio
D              B     G                D  A...
When I got the music I got a place to go

e|-------------------------
B|-------------------------
G|-7-9-11-12--11-12-11-9-7-
D|-------------------------
A|-------------------------
E|-------------------------
(repeat x2)

D              B     G                D
When I got the music I got a place to go
D              B     G                D
When I got the music I got a place to go
D                B                  G                  D
I got a place to run got a place to run got a place to go
D              B     G                D
When I got the music I got a place to go
D              B     G                D
When I got the music I got a place to go

D B G D
Composição de Billie Joe Armstrong / Matt Freeman / Tim Armstrong
Colaboração e revisão:
  • Dante Sagula
5.633 exibições
    • ½ Tom
    • A
    • Bb
    • B
    • C
    • Db
    • D
    • Eb
    • E
    • F
    • F#
    • G
    • Ab
  • Adicionar à lista

    0 comentários

    Ver todos os comentários
    00:00 / 00:00
    Outros vídeos desta música
    Repetir Qualidade Automático
    Outros vídeos desta música
    00:00 / 00:00
    Automático

    Cifra Club Pro

    Aproveite o Cifra Club com benefícios exclusivos e sem anúncios
    Cifra Club Pro
    Aproveite o Cifra Club com benefícios exclusivos e sem anúncios
    OK