Cifra Club

Time Bomb

Rancid

Cifra: Principal (violão e guitarra)
exibições 32.832
Tom: A
Intro
Guitarra 1:     Bm, E. 

Guitarra 2:
            Bm         E           Bm          E
e|--------------|-----------|------------|----------
B|--------------|-----0-3---|------------|----0-3---
G|--------------|---2-------|------------|--2-------
D|--------------|-----------|------------|----------
A|--------------|-----------|------------|----------
E|--------------|-----------|------------|----------

Versos:
                Bm,  
Refrão:
               A, D,  , D

Refrão que antecede o Solo:
               A, D,  , D, E maj.

Solo Guitarra:          (Base em: Bm,  )
e|-------------------------------------------------------------------------------------
B|-------------------------------------------------------------------------------------
G|-4-2-4-77777-6-4-2-4-77777-6-4-2-4-77777p6p77p6p77p6p77p6p777~-----------------------
D|-------------------------------------------------------------------------------------
A|-------------------------------------------------------------------------------------
E|-------------------------------------------------------------------------------------

Solo Teclado arranjado para Guitarra:           (Base em: A, D,  , D)
e|-------------------------------------------------------------------------------------
B|---910-----10--9--------------------------------------------------------------------
G|---------11---11----11-9---66-77--7-6---------676--7-6-7-6-7-6-79--7--------------
D|------------------------------------------------9-7---9------------------------------
A|-------------------------------------------------------------------------------------
E|-------------------------------------------------------------------------------------

Final:
            E maj , A.

Letra:

If you wanna make the move then you better come in
It's just the ability to reason that wears so thin
Living and dying and the stories that are true
The secret to a good life is knowing when you're through

Black coat, white shoes, black hat, Cadillac
The boy's a time bomb

He's back in the hole where they got him living like a rat
Be he's smarter than that  Nine lives like a cat
Take him to the youth authority home
First thing you learn is you got to make it in this world alone
Now he's gotten out  He's gotten free  He's gotta go
Gotta car 21 years old   He's runnin' numbers from the bar
His pager's beepin'  He's gettin' deep in whatever
He can move on in  You know that kid's a creepin' in

Tears come from the razor that's been tattooed below his eye
His mother cries  She knows that he is strong enough to die
He's rollin' in the Cadillac  It's midnight  Sunroof is down
Three shots rung out the herd's deal  The new king is crowned.
Acordes para:
    Composição: Lars Frederiksen / Matt Freeman / Tim Armstrong Colaboração e revisão:
    • Eliakin sá
    • Gabriel

    0 comentários

    mostrar mais comentários

    Conseguiu tocar?

    3 tocaram 0 ainda não

    Grave um vídeo tocando Time Bomb e mande pra gente!

    00:00 / 00:00
    outros vídeos desta música
    repetir qualidade Automático
    Outros vídeos desta música
    00:00 / 00:00
    Automático
    OK