Cifra Club

Reflection

RM

Cifra: Principal (violão e guitarra)
Selo Cifra Club: esta cifra foi revisada para atender aos critérios oficiais da nossa Equipe de Qualidade.
tom: A
 (Base de fundo, repete por toda a música)

E|-------------------------------------------|
B|-------------------------------------------|
G|-------------------------------------------|
D|----2--------------------------------------|
A|--0-------------0--------------------------|
E|--------------3-----------1-3---------0----|
[Primeira Parte]

I know
Every life's a movie
We got different stars and stories
We got different nights
And mornings
Our scenarios ain't just boring

Naneun i yeonghwaga neomu jaemisseo
Maeilmaeil jal jjikgo sipeo
Nan nal sseudadeumeojugo sipeo
Nal sseudadeumeojugo sipeo

Geunde marya gakkeum naneun naega neomuneomu miwo
Sasil kkwaena jaju naneun naega neomu miwo
Naega neomu miul ttae nan ttukseome wa
Geunyang seo isseo, iksukhan eodumgwa

Utgo itneun saramdeulgwa nareul usge haneun beer
Seulmyeosi dagawaseo naui soneul japneun fear
Gwaenchanha da dulsesinikka
Nado chinguga isseum johjanha

Refão

 A  G  F  E

E|------------------------------5------------3--|
B|-5--3-2-----5--3------------------------------|
G|------------------2-----4--2---------4--2-----|
D|----------------------------------------------|
A|----------------------------------------------|
E|----------------------------------------------|


E|------------------------5-----3------5----------------|
B|-5--3-2-----5--3-------------------------5-----5--3-2-|
G|------------------2-----------------------------------|
D|------------------------------------------------------|
A|------------------------------------------------------|
E|------------------------------------------------------|

[Segunda Parte]


Sesangeun jeolmangui tto dareun ireum
Naui kineun jiguui tto dareun jireum
Naneun naui modeun gippeumija sireum
Maeil banbokdwae nal hyanghan johgo silheum

Jeogi hangangeul boneun chinguya
Uri osgiseul seuchimyeon inyeoni doelkka
Ani uri jeonsaenge seuchyeosseulji molla
Eojjeom sueopsi budijhyeosseuljido molla

Eodum sogeseo saramdeureun
Najboda haengbokhae boine
Dadeul jagiga isseul goseul aneunde
Naman harileopsi geotne
Geuraedo yeogi seokkyeoitneun ge deo pyeonhae
Bameul samkin ttukseomeun naege
Jeonhyeo dareun sesangeul geonne

Naneun jayuropgo sipda
Jayuegeseo jayuropgo sipda
Jigeumeun haengbokhande bulhaenghanikka

Naneun nareul bone
Ttukseomeseo


(REFÃO)

 A  G  F  E

E|------------------------------5------------3--|
B|-5--3-2-----5--3------------------------------|
G|------------------2-----4--2---------4--2-----|
D|----------------------------------------------|
A|----------------------------------------------|
E|----------------------------------------------|


E|------------------------5-----3------5----------------|
B|-5--3-2-----5--3-------------------------5-----5--3-2-|
G|------------------2-----------------------------------|
D|------------------------------------------------------|
A|------------------------------------------------------|
E|------------------------------------------------------|


I wish I could love myself
I wish I could love myself
I wish I could love myself
I wish I could love myself

I wish I could love myself
I wish I could love myself
I wish I could love myself
I wish I could love myself
Outros vídeos desta música
    480 exibições
      • ½ Tom
      • A
      • Bb
      • B
      • C
      • Db
      • D
      • Eb
      • E
      • F
      • F#
      • G
      • Ab
    • Adicionar à lista

    Afinação da cifra

    Afinador online

      0 comentários

      Ver todos os comentários

      Conseguiu tocar?

      0Tocaram0Ainda não

      Grave um vídeo tocando Reflection e nos envie!

      Toque também

      1. Imagem do artista Jungkook Seven (feat. Latto) Jungkook
      2. Imagem do artista Agust DLife Goes On Agust D
      3. Imagem do artista j-hopeI Wonder… (Feat. Jung Kook) j-hope
      4. Imagem do artista SUGA (BTS)Trivia: Seesaw SUGA (BTS)

      Entre para o Cifra Club PRO

      Tenha acesso a benefícios exclusivos no App e no Site

      • Chega de anúncios

      • Badges exclusivas

      • Mais recursos no app do Afinador

      • Atendimento Prioritário

      • Aumente seu limite de lista

      • Ajude a produzir mais conteúdo

      Cifra Club Pro

      Aproveite o Cifra Club com benefícios exclusivos e sem anúncios
      Cifra Club Pro
      Aproveite o Cifra Club com benefícios exclusivos e sem anúncios
      Ops (: Contenido disponible sólo en portugués.
      OK