Cifra Club

Aprenda

Cuarto Poder

Rata Blanca

Cifra: Principal (violão e guitarra)
tom: D
Intro:  

  F#   G  Em  F#  G   Em F# G   A   F#              B 
|------------------------------------------------------| 
|------------------------------------------------------| 
|------------------------------------------------------| 
|--11--12--9--11--12--9--11-12--14--11/-------------4--| 
|--9---10--7--9---10--7--9--10--12--9-/-------------2--| 
|-----------------------------------------2-3-5-2-3----| 

  F#   G  Em  F#  G   Em F# G   A   F#    P.M................   B 
|------------------------------------------------------------------| 
|------------------------------------------------------------------| 
|------------------------------------------------------------------| 
|--11--12--9--11--12--9--11-12--14--11/-------------------------4--| 
|--9---10--7--9---10--7--9--10--12--9-/-------------------------2--| 
|-----------------------------------------2-3-5-2-3-5-2-3-5-2------| 


E5 F#5                    E5 F#5  
  Te hiciste bien de abajo  fuiste abriendo paso 
E5 F#5                    E5 F#5  
  A fuerza de tu voluntad,  
E5 F#5                    E5 F#5   
  llegaste a la cima      sin pedir nada a cambio 
E5 F#5                    E5 F#5 
  Solo mostrabas tu verdad 

B5         G5     F#5     A5 B5 C#5 B5    
 No confies en tu suerte 
B5         G5     F#5     C#5 D5 C#5 
 Alguien viene a destruir  
B5         G5     D5  
 Todo aquello que lograste  
          C#5         B5     
 Lo convierte en el desastre 
                
 ¡Cuarto poder! 
               G5 F#5 F#5 E5 F#5 F#5 
 ¡CUARTO PODEEEEEEEEEEEEEEEEEEEEEEER! 

(con P.M.....) 
 G5 F#5 F5 E5 

 Si sos un pobre diablo 
 seras primera plana 
 porque les diste de comer 
 rodeados de violencia 
 su vida es mas hambrienta 
 cuando se trata de vender 

 No te muevas de tu rumbo 
 aunque mires para atras 
 ellos buscan tus defectos  
 y se cagan en el mundo 
 ¡Cuarto poder! 
 ¡Cuarto poder! 
 ¡Cuarto poder! 
  
     P.M................    B                                          x2 
|------------------------------|--------------------------------------| 
|------------------------------|--------------------------------------| 
|------------------------------|--------------------------------------| 
|---------------------------4--|--2-4--------5-4--------2-4--5-4------| 
|---------------------------2--|------444444-----444444-----------4-4-| 
|----2-3-5-2-3-5-2-3-5-2-------|------222222-----222222-----------2-2-| 
                                                x2 
|----------------------------------------------| 
|----------------------------------------------| 
|----------------------------------------------| 
|----------------------------------------------| 
|--7--9--999999--10-9--999999--7-9--10-9--9-9--| 
|--5--7--777777--8--7--777777--5-7--8--7--7-7--| 

 Usaran tu nombre 
 y te daran el cielo 
 pero no te equivoques  
 porque sera el infierno 
 ¡HAAAAAAAAA! 

(Se repite esto en el solo) 

 No confies en tu suerte 
 Alguien viene a destruir  
 Todo aquello que lograste  
 Lo convierte en el desastre            
 ¡Cuarto poder! 
 ¡CUARTO PODEEEEEEEEEEEEEEEEEEEEEEER! 
 ¡CUARTO PODEEEEEEEEEEEEEEEEEEEEEEER! 
 ¡CUARTO PODEEEEEEEEEEEEEEEEEEEEEEER! 

|------------------------------| 
|------------------------------| 
|------------------------------| 
|---------------------------4--| 
|---------------------------2--| 
|----2-3-5-2-3-5-2-3-5-2-------| 

Fin. 

Espero que les haya gustado, si tienen una version  
mejor no duden pasarmela.
Compositor não encontrado.
Colaboração e revisão:
  • Fernando
590 exibições
    • ½ Tom
    • A
    • Bb
    • B
    • C
    • Db
    • D
    • Eb
    • E
    • F
    • F#
    • G
    • Ab
  • Adicionar à lista

    0 comentários

    Ver todos os comentários

    Conseguiu tocar?

    0 Tocaram 0 Ainda não

    Grave um vídeo tocando Cuarto Poder e nos envie!

    00:00 / 00:00
    Outros vídeos desta música
    Repetir Qualidade Automático
    Outros vídeos desta música
    00:00 / 00:00
    Automático

    Cifra Club Pro

    Aproveite o Cifra Club com benefícios exclusivos e sem anúncios
    Cifra Club Pro
    Aproveite o Cifra Club com benefícios exclusivos e sem anúncios
    OK