Cifra Club

Aprenda

Enough Is Enough

Ratt

Cifra: Principal (violão e guitarra)
Já pensou em usar uma coleção de roupas do Cifra Club? Responda as perguntas abaixo e nos ajude nessa missão! →
tom: G
                                     P.m.                              p.m.
  Intro                              |-|                               |-|
E|-------------------4---|--4-----4-------6/4---4--2-----|--3--3------------|
B|-------------------5---|--5-----5-------7/5---5--3-----|--3--3------------|
G|-------------------4---|--4-----4-------6/4---4--2-----|--4--4------------|
D|-------------------6---|--7--6------4------------------|------------------|
A|-------------x---------|-------------------------------|------------------|
E|-------------x---------|-------------------------------|--------------0---|
          P.m.       p.m.            p.m.
          |-|        |-|             |-|
E|--3--2-------3--2------4---4----4--------6----4----4---2----|--3---3------|
B|--3--3-------3--3------5---5----5--------7----5----5---3----|--3---3------|
G|--4--2-------4--2------4---4----4--------6----4----4---2----|--4---4------|
D|-----------------------6-----6------4-----------------------|-------------|
A|------------------------------------------------------------|-------------|
E|---------0----------0---------------------------------------|-------------|
      P.m.
      |-|
E|----------3---2--------2--(2)---2--3----2--3-------5--|---------5---5/7---|
B|----------3---3--------3--(3)---3--3----3--3-------5--|---(x)---6---6/8---|
G|----------4---2---x----2--(2)---2--4----2--4-------6--|---(x)---5---5/7---|
D|-----0------------x-----------------------------------|---(x)------------x|
A|------------------------------------------------------|-------------------|
E|------------------------------------------------------|-------------------|

Verso

       I Like the way  you talk___      when you undress
E|--4-----4-------6/4---4----2-----|--3--3------------|
B|--5-----5-------7/5---5----3-----|--3--3------------|
G|--4-----4-------6/4---4----2-----|--4--4------------|
D|--7--6------4--------------------|------------(0)---|
A|---------------------------------|------------------|
E|---------------------------------|------------------|
          me              i'd like   to   take it off___
                     |-|             |-|              (Overdub twelve string)
E|--3--2-------3--2------4---4----4--------6/4----4------|------------------|
B|--3--3-------3--3------5---5----5--------7/5----5------|------------------|
G|--4--2-------4--2------4---4----4--------6/4----4------|---------------2--|
D|---------(0)-----------6-----6------4------------------|--------0---3--0--|
A|-------------------------------------------------------|--3/5-------------|
E|--------------------0----------------------------------|------------------|

Pre-Refrão:

    p
E|------------------------------|---------------------------------------|
B|-5-6----6------5-----------8--|-----8----7----7----7----8---7---------|
G|---5----5-----------7------7--|-----7----7----7----7----7---7---------|
D|---5----5------------------7--|-----7----7----7----7----7---7---------|
A|------------------------------|---------------------------------------|
E|------------------------------|---------------------------------------|

    p             p
E|--------------------------3-----|-----3----3----3----3---3---3--3---|
B|-5-6-----6----6---5-------3-----|-----3----3----3----3---3---3--3---|
G|---5-----5----5------7----0-----|-----0--------------0---0----------|
D|---5-----5----5-----------0-----|--------------------0--------------|
A|--------------------------------|-----------------------------------|
E|--------------------------5-----|--------------------5--------------|

    p            p
E|--------------------------------|-------------------4---4-----------|
B|-5-6--6--6--6----5--------------|-------------------5---5-----------|
G|---5--5--5--5---------7----7----|-------------------4---4-----------|
D|---5--5--5--5--------------7----|-----------------------------------|
A|---------------------------5----|-----------------------------------|
E|---------------------------0----|-----------------------------------|

 Verso 2x     p.m.                                               p.m.
E|4--------------------6/4---4--2-----|--3--3---------------3---2------|
B|5--------------------7/5---5--3-----|--3--3---------------3---3------|
G|4------4-------------6/4---4--2-----|--4--4---------------7---2------|
D|6--x---6------4---------------------|--------------------------------|
A|------------------------------------|--------------------------------|
E|------------------------------------|--------------0----0--------0---|

         p.m   p.m                  p.m. p.m.    p      p.m   first ending
E|--4-----------------6/2---|----3-------------3-----2-------|--4---|
B|--5-----------------7/3---|----3-------------3-------------|--5---|
G|--4-----------------6/2---|----4-------------4-----2-------|--4---|
D|--7-----------------------|--------------------------------|--7---|
A|--------6-----6/4---------|--------------------------------|------|
E|--------------------------|---------0---0--------------0---|------|

Segundo final
E|-2---2--3------3---2---------5-------|---------5---5----7-----7---|
B|-3---3--3------3---3---------5-------|---------6---6----8-----8---|
G|-2---2--4------4---2---------6-------|---------5---5----7-----7---|
D|-------------------------------------|----------------------------|
A|-------------------------------------|----------------------------|
E|------------0-----------0------------|----------------------------|

Refrão:

     p             p      light P.m.|------------------------------------|
E|-------------------------------|---------------------------------------|
B|--5-6----6----6----5-----------|---------------------------------------|
G|----5----5----5----------------|---------------------------------------|
D|----5----5----5---------0---7--|---7---7----7-----7----7----7----7-----|
A|----------------------------5--|---5---5----5-----5----5----5----5-----|
E|-------------------------------|---------------------------------------|

   p             p                  (Drone Riff)
E|-------------------------------|-------------------------------------|
B|--5-6----6----6----5-----------|-------------------------------------|
G|----5----5----5----------------|-------------------------------------|
D|----5----5----5---------0---2--|---0---0----0-----2----2----2----2---|
A|----------------------------0--|---0---0----0-----0----0----0----0---|
E|-------------------------------|-------------------------------------|

 Light p.m.--------------------------| light p.m.--------------------------|
E|--------------------------------------|----------------------------------|
B|--------------------------------------|----------------------------------|
G|--2-----------------------------------|----------------------------------|
D|--2---2---2---2---2---2---2---2---2---|--5-------------------------------|
A|--0---0---0---0---0---0---0---0---0---|--5---5---5---5---5---5---5---5--5|
E|--------------------------------------|--5---5---5---5---5---5---5---5--5|

E|-------------------------------------|------------------------------------|
B|-------------------------------------|------------------------------------|
G|---0---0---0---0---0---2---2---2---2-|--0---0---0---0---0---2---2---2---2-|
D|---0---0---0---0---0---0---0---0---0-|--0---0---0---0---0---0---0---0---0-|
A|-------------------------------------|------------------------------------|
E|-------------------------------------|------------------------------------|

 light p.m.---------------------|       |---------------------------------|
E|---------------------------------|--------------------------------------|
B|---------------------------------|--------------------------------------|
G|---------------------------------|--------------------------------------|
D|--2------------------------------|--7---7---7---7---7---7---7---7-------|
A|--2---2---2---2---2---2---2---2--|--5---5---5---5---5---5---5---5-------|
E|--2---2---2---2---2---2---2---2--|--------------------------------------|

E|-------------------------------------|------------------------------------|
B|-------------------------------------|------------------------------------|
G|---0---0---0---0---0---2---2---2---2-|--0---0---0---0---0---2---2---2---2-|
D|---0---0---0---0---0---0---0---0---0-|--0---0---0---0---0---0---0---0---0-|
A|-------------------------------------|------------------------------------|
E|-------------------------------------|------------------------------------|

 Light p.m.--------------------------| light p.m.--------------------------|
E|--------------------------------------|----------------------------------|
B|--------------------------------------|----------------------------------|
G|--2-----------------------------------|----------------------------------|
D|--2---2---2---2---2---2---2---2---2---|--5-------------------------------|
A|--0---0---0---0---0---0---0---0---0---|--5---5---5---5---5---5---5---5--5|
E|--------------------------------------|--5---5---5---5---5---5---5---5--5|

E|-------------------------------------|------------------------------------|
B|-------------------------------------|------------------------------------|
G|---0---0---0---0---0---2---2---2---2-|--0---0---0---0---0---2---2---2---2-|
D|---0---0---0---0---0---0---0---0---0-|--0---0---0---0---0---0---0---0---0-|
A|-------------------------------------|------------------------------------|
E|-------------------------------------|------------------------------------|

Solo de Guitarra:

E|--15b----15b----------14---10-|10b---------x----------|----------------|
B|------------------------------|-----------------------|-12-----12b-----|
G|------------------------------|------------------4----|-----9----------|
D|------------------------------|-----------------------|----------------|
A|------------------------------|-----------------------|----------------|
E|------------------------------|-----------------------|----------------|

E|-----------------------|--------------------------------------|---------|
B|--10--8--10---8----10--|---8-----------8----------------------|---------|
G|-----------------9-----|-----9---7--------9--9---9b----7------|---------|
D|-----------------------|------------9--------------------7--5-|-7/9b----|
A|-----------------------|--------------------------------------|---------|
E|-----------------------|--------------------------------------|---------|

                p                  h
E|--------------------------------------------------------------------------|
B|--------------------------------------------------------------------------|
G|---------7----------------------------------------------------------------|
D|--7--9-------9--7---5--4---5---4-5-4-------2-------2---2---0--2---0-------|
A|--------------------------------------------------------------------------|
E|-----------------------------------------------2------------------------2-|

   p.m.--------------|     p.m.-------------------------------------------|            p.m.
E|-----------------------|-----------------------|------------------------|
B|-----------------------|-----------------------|------------------------|
G|-----------------------|-----------------------|-----------x-----7------|
D|--5--------------------|-0---------------------|-----------9---------9--|
A|--5--5--5-5-5-5-5--5---|-0--0--0--0-0--0--0--0-|------------------------|
E|--5--5--5-5-5-5-5--5---|-0--0--0--0-0--0--0--0-|----7b------------------|

                    p hold noise slide        full
E|----------------------------------------|----------------------10---------|
B|--8-------------------------------------|--10b----------------------10-10-|
G|-----9b----------9-7-9------------------|---------------------------------|
D|----------------------------------------|---------------------------------|
A|----------------------------------------|---------------------------------|
E|----------------------------------------|---------------------------------|

                                                             p
E|---------------------------------|---------------------------------------|
B|-10b----------8---10--12--10b----|-----8-----8---------------------------|
G|---------------------------------|--------9-----9---------9--7-----9---7-|
D|---------------------------------|-----------------7--9---------9--------|
A|---------------------------------|---------------------------------------|
E|---------------------------------|---------------------------------------|

       p       p                           play twice  Bends
E|-----------------------------------------|----12---12---12---12----------|
B|---------------------------------8-------|--15----15---15---15-----------|
G|------------------------------7----9--9--|-------------------------------|
D|--9--7--5---7--5----7--5--7/9------------|-------------------------------|
A|------------------7----------------------|-------------------------------|
E|-----------------------------------------|-------------------------------|

     h        h               h        h              h
E|---------------------------------------------------------------------|
B|------------------(12)--------------------(12)--------------12-------|
G|-------------------12--14------------------12--14-----------12--14---|
D|----------12--14-------------------12--14----------12--14------------|
A|--12--14--------------------12--14-----------------------------------|
E|---------------------------------------------------------------------|

E|---------------------------------------------------------------|
B|--12------12--13/1513--12-------------------------------------|
G|--12--14--12--14/1614--12-----12------------------------------|
D|----------------------------14-----14--12------12--------------|
A|-------------------------------------------14------14--13--14--|
E|---------------------------------------------------------------|

   p.m            p.m          p.m              p.m
E|----------------------------------------|--------------------------------|
B|-------5----5---------5---5---------5---|--5-------5---5---5---5---5---5-|
G|-------4----4---------4---4---------4---|--4-------4---4---4---4---4---4-|
D|--2--------------2-------------2--------|------2-----------2---2---2---2-|
A|--3--------------3-------------3--------|------2-------------------------|
E|--2--------------2-------------2--------|------2-------------------------|

 Refrão final:
                                                                p.h
E|----------------------------------------------|--------------------------|
B|-------------------------10---10b--10----1010b|--------------------------|
G|--0--0--0--2-----2---2/7----7---------7-------|--------------------------|
D|--0--0--0--0-----0----------------------------|---------12------10-------|
A|----------------------------------------------|--12--9------12-----------|
E|----------------------------------------------|--------------------------|

      h           h
E|-----------------------------|-------------------------------------|
B|-----------------------------|-------------------------------------|
G|-----------------------------|---10--------------------------------|
D|--12--10--12--12--10------10-|-------12b-------(12)---10----10-----|
A|-----------------------12----|---------------------------12----12--|
E|-----------------------------|-------------------------------------|

E|-------------------------------------------------------|
B|-------------------------------------------------------|
G|-10------------------------------10--------------------|
D|-----12b--------10-------------------12b-----10--------|
A|--------------------12---10--8--------------------12b--|
E|-------------------------------------------------------|

     h   h             p                    p                 p
E|--------------------------------------------------------------------|
B|----------------------------------------12--------------------------|
G|-12--10--12-------12--10-----------10---12--10-----12--10-----------|
D|-------------12-----------12--10---------------12---------12--10----|
A|--------------------------------------------------------------------|
E|--------------------------------------------------------------------|
                    bends full
                   |------------------------|         p---------------------|             p
E|--10-----------|---12--12---12--12--12--12-----12-------------------------|
B|-----12b-------|-15--15---15--15--15--15----------15--12----12--15--12----|
G|---------------|-----------------------------------------15---------------|
D|---------------|----------------------------------------------------------|
A|---------------|----------------------------------------------------------|
E|---------------|----------------------------------------------------------|

                p              p       P
E|---------------------------------------------|
B|-----12--------------------------------------|
G|--15----15/14--12-----14-12------------------|
D|-------------------14-------14-12------------|
A|-----------------------------------14--12----|
E|---------------------------------------------|

(Riff do Verso)
Composição de Juan Croucier / Robbin Crosby / Stephen Pearcy / Warren DeMartini
Colaboração e revisão:
  • Pedro Rodrigues
14 exibições
    • ½ Tom
    • A
    • Bb
    • B
    • C
    • Db
    • D
    • Eb
    • E
    • F
    • F#
    • G
    • Ab
  • Adicionar à lista

    0 comentários

    Ver todos os comentários

    Conseguiu tocar?

    0 Tocaram 0 Ainda não

    Grave um vídeo tocando Enough Is Enough e nos envie!

    00:00 / 00:00
    Outros vídeos desta música
    Repetir Qualidade Automático
    Outros vídeos desta música
    00:00 / 00:00
    Automático

    Cifra Club Pro

    Aproveite o Cifra Club com benefícios exclusivos e sem anúncios
    Cifra Club Pro
    Aproveite o Cifra Club com benefícios exclusivos e sem anúncios
    OK