Cifra Club

Youre In Trouble

Ratt

Cifra: Principal (violão e guitarra)
Selo Cifra Club: esta cifra foi revisada para atender aos critérios oficiais da nossa Equipe de Qualidade.
tom: F#m
       Intro
N.C.
4/4
Gtr I
                           \3_____________________
  Q     Wx8 
E|----| |------------|--------------|--------------|
B|----| |------------|--------------|--------------|
G|----| |------------|--------------|--------------|
D|----| |------------|--------------|--------------|
A|----| |------------|------<4>-----|-(<4>)--------|
E|----| |------------|--------------|--------------|

    /
E|--------------|------------------------|
B|--------------|------------------------|
G|--------------|------------------<4>---|
D|--------------|------------------------|
A|-(<4>)--------|-(<4>)------(<4>)-------|
E|--------------|------------------------|


    \2_________/                                                   \4
    ~~~~~                                             ~~~~~~~~~~~~~~~~
E|-------------------|------------------------------|-----------|---------| |
B|-------------------|---------------------------19p| =17--------|-(17)----||
G|-(<4>)------(<4>)--|---<12>--<19>-(<19>)-<24>-----|-----------|---------| |
D|-------------------|------------------------------|-----------|---------| |
A|-------------------|------------------------------|-----------|---------| |
E|-------------------|------------------------------|-----------|---------| |


 1st Verse
  Wx8
E|--------|
B|--------|
G|--------|
D|--------|
A|--------|
E|--------|


   Chorus
    $
    A                                     F                           G
||--------------------|-----------------|-----------------|----------------|
||o-----3-2-----------|-3-2-------------|-----3-1---------|-3-1------------|
||------2-2-4-2---2---|-2-2---4---2-2-0-|-----2-2-4-2---2-|-2-2---4--------|
||--2-2-----2-2---2---|-------2---2-2---|-3-3-----3-3---3-|-------3--------|
||o-0-0---------------|-----------------|-----------------|----------------|
||--------------------|-----------------|-----------------|---------1-3-(3)|
|
|   Gtr II
|
||--------------------|-----------------|-----------------|----------------|
||o-----3-2-----------|-3-2-------------|-----3-1---------|-3-1------------|
||------2-2-4-2---2-2-|-2-2---4---2-2---|-----2-2-4-2-----|-2-2---4---2--0-|
||--2-2-2-2-2-2---2-2-|-2-2---2---2-2---|-3-0-----3-3---3-|-------3---3--0-|
||o-0-0---------------|-----------------|-----------------|----------------|
||--------------------|-----------------|-----------------|----------------|


                                                         1.
                                               To Coda
  A                                     F
E|-------------------|-----------------|-----------------|----------------| |
B|-----3-2-----------|-3-2-------------|-----3-1---------|-3-1------------| |
G|-----2-2-4-2---2---|-2-2---4---2-2-0-|-----2-2-4-2---2-|-2-2---4--------| |
D|-2-2-----2-2---2---|-------2---2-2---|-3-3-----3-3---3-|-------3--------| |
A|-0-0---------------|-----------------|-----------------|----------------| |
E|-------------------|-----------------|-----------------|-----------1-3--| |
|
|
E|-------------------|-----------------|-----------------|-------------3--| |
B|-----3-2-----------|-3-2-------------|-----3-1---------|-3-1---------3--| |
G|-----2-2-4-2---2-2-|-2-2---4---2-2---|-----2-2-4-2-----|-2-2---4---2-4--| |
D|-2-2-2-2-2-2---2-2-|-2-2---2---2-2---|-3-0-----3-3---3-|-------3---3----| |
A|-0-0---------------|-----------------|-----------------|----------------| |
E|-------------------|-----------------|-----------------|----------------| |

 2nd Verse
  Em
E|-----------------|-----------------|-----------------|------------------|
B|-----------------|-8-------7-------|-----------------|-8-------10-------|
G|-----9-----------|-7-------7-------|-----9-----------|-7----------------|
D|-----9-----------|-----------------|-----7-----------|------------------|
A|-----------------|-----------------|-----------------|------------------|
E|-0-0-------------|-----------------|-0-0-------------|------------------|
|
|
E|-----------------|-----------------|-----------------|------------------|
B|-----------------|-----------------|-----------------|------------------|
G|-----------------|-----------------|-----------------|------------------|
D|-----------------|-----4h5-----2h4-|-----------------|-----4h5------5h7-|
A|-----5h7-----5h7-|-----------------|-----5h7-----5h7-|------------------|
E|-0-0-----0-0-----|-0-0-----0-0-----|-0-0-----0-0-----|-0-0------0-0-----|

                                                                   ~~~
E|-------------------|-----------------|-----------------|-----------------| |
B|-------------------|-8-------7-------|-----------------|-8---------------| |
G|-------9-----------|-7-------7-------|-----9-----------|-7-------<7>-----| |
D|-------9-----------|-----------------|-----9-----------|---------<7>-----| |
A|-------------------|-----------------|-----------------|-----------------| |
E|--0--0-------------|-----------------|-0-0-------------|-----------------| |
|
|
E|-------------------|-----------------|-----------------|-----------------| |
B|-------------------|-----------------|-----------------|-----------------| |
G|-------------------|-----------------|-----------------|-----------------| |
D|-(7)---------------|-----4h5-----2h4-|-----------------|----4h5-------5h7| |
A|-------5h7-----5h7-|-----------------|-----5h7-----5h7-|-----------------| |
E|-----------0-0-----|-0-0-----0-0-----|-0-0-----0-0-----| 0-0------0--0----||

 Pre Chorus
  Dm
E|-----------------|-----------------|----------------|------------|
B|-----------------|-6-----6-5-----5-|----------------|-6----8-----|
G|-----------------|---5-------5-----|----------------|-5----7-----|
D|---------3---3---|-----5-------5---|-7--7-7-7-7-7-7-|------------|
A|-5-5-5-5---5---5-|-----------------|-5--5-5-5-5-5-5-|------------|
E|-----------------|-----------------|----------------|------------|
|
|
E|-----------------|---------------5-|----------------|------------|
B|-----------------|-6-----6-5-----5-|----------------|-6----8/----|
G|-----------------|---5-------5-----|-7--------------|-5----7/----|
D|-----------------|-----5-------5---|-7--------------|------------|
A|-5---5-5-5-5-5-5-|-----------------|----------------|------------|
E|-----------------|-----------------|----------------|------------|


  Em
                                                                 ~~~
E|-----------------|-----------------|-----------------|-------------------| |
B|-----------------|-8-------7-------|-----------------|-8----------------o| |
G|-----9-----------|-7-------7-------|-----9-----------|-7-------<7>-------| |
D|-----9-----------|-----------------|-----9-----------|---------<7>-------| |
A|-----------------|-----------------|-----------------|------------------o| |
E|-0-0-------------|-----------------|-0-0-------------|-------------------| |
|
|
E|-----------------|-----------------|-----------------|-------------------| |
B|-----------------|-----------------|-----------------|------------------o| |
G|-----------------|-----------------|-----------------|-------------------| |
D|-----------------|-----4h5-----2h4-|-----------------|-----4h5-------5h7-| |
A|-----5h7-----5h7-|-----------------|-----5h7-----5h7-|------------------o| |
E|-0-0-----0-0-----|-0-0-----0-0-----|-0-0-----0-0-----|-0-0------0--0-----| |


                    Bridge
  2.
  F         G        E5               D/F#
E|-----------------| |----------------|----------------|
B|-3-1-------------| |----------------|-3--------------|
G|-2-2---4---------| |----------------|-2--------------|
D|-------3---------| |----------------|-0--------------|
A|-----------------| |-2--------------|----------------|
E|-----------3-----| |-0--0-0-0-0-0-0-|-2--2-2-2-2-2-2-|
|
|
E|-----------------| |----------------|----------------|
B|-3-1-------------| |----------------|-3--------------|
G|-2-2---4------0--| |----------------|-2--------------|
D|-------3------0--| |-2--------------|-0--------------|
A|-----------------| |-2--------------|----------------|
E|-----------3-----| |-0--------------|----------------|

  G5               Esus4/Ab         A5   B5     C5   D5
E|-3--------------|----------------|-----------|-----------| |
B|-3--------------|----------------|-----------|-----------| |
G|-0--------------|-2--------------|-----------|-----------| |
D|-0--------------|-2--------------|-2----4----|-5----7----| |
A|----------------|----------------|-0----2----|-3----5----| |
E|-3--3-3-3-3-3-4-|-4--4-4-4-4-4-4-|-----------|-----------| |
|
|
E|----------------|----------------|-----------|-----------| |
B|-3--------------|----------------|-----------|-----------| |
G|-2--------------|-2--------------|-2----4----|-----------| |
D|-0--------------|-2--------------|-2----4----|-5----7----| |
A|----------------|----------------|-0----2----|-3----5----| |
E|----------------|----4-4-4-4-4-4-|-----------|-----------| |


 Guitar Solo
  C#                              E5
                                            ~
E|-3--|
B|-------------------------------|----------------------|
G|---[2]---------([2])-----5-4---|-2-(2)h4p2------------|
D|-------------------------------|-----------4----------|
A|-------------------------------|------------------2h6-|
E|-------------------------------|----------------------|
E|-------------------------------|----------------------|
|
|
E|-------------------------------|----------------------|
B|-------------------------------|-5--------------------|
G|-------------------------------|-4--------------------|
D|-------------------------------|----------------------|
A|-4--4--4-4-4-4---4---4-4-4-4-4-|----------------------|
E|-------------------------------|----------------------|

  C#                             E5
E|----------------------4-------|----------------------------|
B|------------------------7-5-4-|-7-5p4---5p4-----------9-9--|
G|-6-6----------(6)-------------|-------6-----6-4-6--4/------|
D|------------------------------|----------------------------|
A|------------------------------|----------------------------|
E|------------------------------|----------------------------|
|
|
E|------------------------------|----------------------------|
B|------------------------------|-5--------------------------|
G|------------------------------|-4--------------------------|
D|------------------------------|----------------------------|
A|-4-4--4-4-4-4--4--4-4-4---4-4-|----------------------------|
E|------------------------------|----------------------------|

  C#
E|--3--|
B|-9---9---(9)-------12---11h12p11----11-|
G|---9-----------------------------14----|
D|---------------------------------------|
A|---------------------------------------|
E|---------------------------------------|
E|---------------------------------------|
|
|
E|---------------------------------------|
B|---------------------------------------|
G|---------------------------------------|
D|---------------------------------------|
A|-4---4-4--4--4-4-4--4-4--4--------4--4-|
E|---------------------------------------|


  E5                                              
 
E|-------11-12-14-12-11----12-11----11-------------|
B|-12-14----------------14-------14----14-12p10----|
G|----------------------------------------------13-|
D|-------------------------------------------------|
A|-------------------------------------------------|
E|-------------------------------------------------|
|
|
E|-------------------------------------------------|
B|--5----------------------------------------------|
G|--4----------------------------------------------|
D|-------------------------------------------------|
A|-------------------------------------------------|
E|-------------------------------------------------|

   C#

E|------------14b16====(14)r==========|
B|-14---------------------------------|
G|-13-----/13-------------------------|
D|------------------------------------|
A|------------------------------------|
E|------------------------------------|
|
|
|
E|------------------------------------|
B|------------------------------------|
G|------------------------------------|
D|------------------------------------|
A|--4-4-4---4--4-----4---4--4-4-4-4-4-|
E|------------------------------------|

  E5
                  ~~~~

E|(14)--12h14p12-(12)-----| 12-12---------------------12----------12---------|
B|---------------------/15|------15b17==(15)r(15)-15----15-12-------15----15|
G|------------------------|-----------------------------------14-------14---|
D|------------------------|-------------------------------------------------|
A|------------------------|-------------------------------------------------|
E|------------------------|-------------------------------------------------|
|
|
E|------------------------|-------------------------------------------------|
B|--5---------------------|--------------------5----------------------------|
G|--4---------------------|--------------------4----------------------------|
D|------------------------|-------------------------------------------------|
A|------------------------|-------------------------------------------------|
E|------------------------|-------------------------------------------------|

  G5                      D
E|------------------------------------------------|
B|-12-15----15-12---------------------------------|
G|-------14-------12-12-12-11-12-------12---------|
D|-------------------------------14-12----14-14---|
A|------------------------------------------------|
E|------------------------------------------------|
|
|
E|--3-----------------------2---------------------|
B|--3-----------------------3---------------------|
G|--0-----------------------2---------------------|
D|--0-----------------------0---------------------|
A|------------------------------------------------|
E|--3---------------------------------------------|


  E5
    ~~~~
E|--------------------------------------|
B|-------12-----------------------------|
G|--------------16b18==(16)--16r(16)-12-|
D|-(14)------14-------------------------|
A|--------------------------------------|
E|--------------------------------------|
|
|
E|--------------------------------------|
B|--------5-----------------------------|
G|--------4-----------------------------|
D|--------------------------------------|
A|--------------------------------------|
E|--------------------------------------|


  G5                      D                   E5
                                         ~
E|--3--| |-3--|  |-3--|
B|-------------------------------------------|---14-14b16=====14r(14)-|
G|-------------------------------------------|------------------------|
D|-16p12h16-12h16-11h12p11-9h11p9---------9--|------------------------|
A|--------------------------------12p9h12----|-x----------------------|
E|-------------------------------------------|------------------------|
E|-------------------------------------------|------------------------|
|
|
E|--3----------------------2-----------------|------------------------|
B|--3----------------------3-----------------|-------5----------------|
G|--0----------------------2-----------------|-------4----------------|
D|--0----------------------0-----------------|------------------------|
A|-------------------------------------------|------------------------|
E|--3----------------------------------------|------------------------|

  G5                      D
E|-12----12----12------------------------------|
B|----15---------------------------------------|
G|----------15----15-12----15-12-14b16r(14)-x/-|
D|----------------------14---------------------|
A|---------------------------------------------|
E|---------------------------------------------|
|
|
E|--3-----------------------2------------------|
B|--3-----------------------3------------------|
G|--0-----------------------2------------------|
D|--0-----------------------0------------------|
A|---------------------------------------------|
E|--3------------------------------------------|


                                                    
  E5                                                
E|-------------12--17-12-------------15-19-15----15-|
B|-------12-16--------------------15----------19----|
G|-12-15-----------------15s18-19-------------------|
D|--------------------------------------------------|
A|--------------------------------------------------|
E|--------------------------------------------------|
|
| 
E|--------------------------------------------------|
B|--------------5-----------------------------------|
G|--------------4-----------------------------------|
D|--------------------------------------------------|
A|--------------------------------------------------|
E|--------------------------------------------------|

                     D.S. al Coda
 G5                         D
E|-------20----21----22-22b24-(22)-----| |
B|-------------------------------------| |
G|-17s18----18----19-------------------| |
D|-------------------------------------| |
A|-------------------------------------| |
E|-------------------------------------| |
|
|
|
E|--3---------------------------2------| |
B|--3---------------------------3------| |
G|--0---------------------------2------| |
D|--0---------------------------0------| |
A|-------------------------------------| |
E|--3----------------------------------| |

                                        Outro Chorus
  &
  F                                      A
                           ~~~~~               T
E|-<12>---<7>--------------------------| |-------------------------|
B|------------<7>----------------------| |-10---10(22)-------------|
G|----------------<5>-<7>-(<7>)-----/9-| |-------------------------|
D|-------------------------------------| |-------------------------|
A|-------------------------------------| |-------------------------|
E|-------------------------------------| |-------------------------|
|
|
E|-------------------------------------| |-------------------------|
B|---3--1------------------------------| |-------3-----2-----------|
G|---2--2----------4--------------0----| |-------2-----2-4-2---2-2-|
D|-----------------3--------------0----| |--2-2--2-----2-2-2---2-2-|
A|-------------------------------------| |--0-0--------------------|
E|------------------------------1------| |-------------------------|

                                  F
    T
E|-3--|
B|-------------------------------|---------------------------------|
G|-(10(22))-----12-(12)-12p8---8-|-(8)-10---10---(10)-8h10p8-------|
D|---------------------------9---|--------9------------------9-----|
A|-------------------------------|---------------------------------|
E|-------------------------------|---------------------------------|
E|-------------------------------|---------------------------------|
|
|
E|-------------------------------|---------------------------------|
B|---3------2--------------------|-----------3-1-------------------|
G|---2------2----4---------2-2---|-----------2-2---4--2------------|
D|---2------2----2---------2-2---|--3---0----------3--3--------3---|
A|-------------------------------|---------------------------------|
E|-------------------------------|---------------------------------|

                           G
E|----------------------------9---|
B|--------------------------------|
G|-(9)---(9)-7pb9r(7)p5-(5)-----9-|
D|--------------------------------|
A|--------------------------------|
E|--------------------------------|
|
|
E|--------------------------------|
B|--3--1--------------------------|
G|--2--2-----------4----------0---|
D|-----------------3----------0---|
A|--------------------------------|
E|--------------------------3-----|

  A                                          F5
E|---------------------|----------------15--|-15b17=====|
B|-10-------12---------|-13h====15-15-------|-----------|
G|---------------------|--------------------|-----------|
D|---------------------|--------------------|-----------|
A|---------------------|--------------------|-----------|
E|---------------------|--------------------|-----------|
|
|
E|---------------------|--------------------|-----------|
B|------3-2------------|--3-2---------------|-----------|
G|------2-2--4-2---2-2-|--2-2----4----2--2--|-----------|
D|--2-2-2-2--2-2---2-2-|--2-2----2----2--2--|--3--------|
A|--0-0----------------|--------------------|--3--------|
E|---------------------|--------------------|--1--------|

  G5                A5
E|-(15)r-----------|------0h3-3s7-7-8-8-12-|
B|-----------------|-----------------------|
G|-----------------|-----------------------|
D|-----------------|-----------------------|
A|-------------x\--|-----------------------|
E|-----------------|-----------------------|
|
|
E|-----------------|-----------------------|
B|-----------------|-----------------------|
G|-----------------|-----------------------|
D|---5------5------|-7---------------------|
A|---5------5------|-7---------------------|
E|---3------3------|-5---------------------|

                ~~~
E|-12s=15-15s19-19-------|-17\----------*|
B|-----------------------|--------------*|
G|-----------------------|--------------*|
D|-----------------------|--------------*|
A|-----------------------|--------------*|
E|-----------------------|--------------*|
|
|
E|-----------------------|--5\----------*|
B|-----------------------|--5\----------*|
G|-----------------------|--------------*|
D|-(7)-------------------|--7\----------*|
A|-(7)-------------------|--7\----------*|
E|-(5)-------------------|--5\----------*|
Outros vídeos desta música
    1 exibições
      • ½ Tom
      • Am
      • Bbm
      • Bm
      • Cm
      • C#m
      • Dm
      • Ebm
      • Em
      • Fm
      • F#m
      • Gm
      • G#m
    • Adicionar à lista

    Afinação da cifra

    Afinador online

      0 comentários

      Ver todos os comentários

      Entre para o Cifra Club PRO

      Tenha acesso a benefícios exclusivos no App e no Site

      • Chega de anúncios

      • Mais recursos no app do Afinador

      • Atendimento Prioritário

      • Aumente seu limite de lista

      • Ajude a produzir mais conteúdo

      Cifra Club Pro

      Aproveite o Cifra Club com benefícios exclusivos e sem anúncios
      Cifra Club Pro
      Aproveite o Cifra Club com benefícios exclusivos e sem anúncios
      OK