Cifra Club

Celestial

RBD

Cifra: Principal (violão e guitarra)
tom: G
INTRO: G  D
      (Em  C)(2X)

E|-----------------------------------------10h12-17-15~~-----------|
B|-12-12b-10-10b-8-8/5-3-12-12b-10-10h12---------------------------|
G|-----------------------------------------------------------------|
D|-----------------------------------------------------------------|
A|-----------------------------------------------------------------|
E|-----------------------------------------------------------------|

 G               D
Si algun dia me vez caller
 Em                 C
nunca pienses que estoy a tu pies
 G               D
Si algun dia me vez llorar
 Em            C
no alucines que voy a rogar

 G               D
Aunque tenga en los bolsillos
 Em               C
el conjuro de tu olvido
 G              D
Aunque ya no estes conmigo
  Em            C
me vas a extrañar

G            D
Si te dicen que sigo mal
Em             C
te lo juro se me va pasar
G              D
Si tu piensas que no soy feliz
 Em          C
que me voy a sobrevivir

G               D
Aunque escarbes en la herida
 Em            C
y te burles de mi vida
G                 D
Pontro desde mis cenizas
 Em        C
deberas volar

CORO:
 G         D        Em
Porque amar es algo celestial
 C
tu no tienes alas
 G        D         Em
Porque amar es algo celestial
 C
tu no tienes alma
    G
Se ama con la vida
    D
sin miedo sin medida
    Em
se ama a cielo abierto
    C
Comfrente sin complejos
    G
se ama hasta con rabia
   D
como si fuera un Karma....
    Em                  C                        (intro)
Se ama sin pensarlo porque el amor es celestial

G               D
Si te cuentan que muero por ti
 Em              C
te cuidado te pueden mentir
G               D
Si algun dia te vuelvo a ver
 Em              C
te prometo que voy a estar bien

G               D
Aunque escarbes en la herida
 Em            C
y te burles de mi vida
G                 D
Pontro desde mis cenizas
 Em        C
deberas volar

CORO:
 G         D         Em
Porque amar es algo celestial
 C
tu no tienes alas
 G        D         Em
Porque amar es algo celestial
 C
tu no tienes alma
    G
Se ama con la vida
    D
sin miedo sin medida
    Em
se ama a cielo abierto
    C
Comfrente sin complejos
    G
se ama hasta con rabia
   D
como si fuera Karma....
    Em                  C
Se ama sin pensarlo porque el amor es celestial
Celestial!! B|--15~~---

E|------------------17-15-14-14/15~~--------------------------|
B|--8/10-8---10/12--------------------------------------------|
G|---------9--------------------------------------------------|
D|------------------------------------------------------------|
A|------------------------------------------------------------|
E|------------------------------------------------------------|
Composição de Carlos Lara / Pedro Damian
Colaboração e revisão:
56.518 exibições
    • ½ Tom
    • A
    • Bb
    • B
    • C
    • Db
    • D
    • Eb
    • E
    • F
    • F#
    • G
    • Ab
  • Adicionar à lista

    0 comentários

    Ver todos os comentários

    Conseguiu tocar?

    9 Tocaram 1 Ainda não

    Grave um vídeo tocando Celestial e nos envie!

    00:00 / 00:00
    Outros vídeos desta música
    Repetir Qualidade Automático
    Outros vídeos desta música
    00:00 / 00:00
    Automático

    Cifra Club Pro

    Aproveite o Cifra Club com benefícios exclusivos e sem anúncios
    Cifra Club Pro
    Aproveite o Cifra Club com benefícios exclusivos e sem anúncios
    OK