Cifra Club

Nuestro Amor

RBD

Cifra: Principal
exibições 150.423
Tom: E
INTRO:
                    E                                   C#m
E|---------0-------|----------0-------|---------4-------|---------4------|
B|-----0-------0---|------0-------0---|-----5-------5---|-----5-------5--|
G|---1---1---1---1-|----1---1---1---1-|---6---6---6---6-|---6---6---6---6|
D|-----------------|------------------|-----------------|----------------|
A|-----------------|------------------|-4---------------|-4--------------|
E|-0---------------|-0----------------|-----------------|----------------|

                    A                           B          B
E|---------0-------|---------0-------|---------2-------|--2--|
B|-----2-------2---|-----2-------2---|-----4-------4---|--4--|
G|---2---2---2---2-|---2---2---2---2-|---4---4---4---4-|-----|
D|-----------------|-----------------|-----------------|-----|
A|-0---------------|-0---------------|-2---------------|--2--|
E|-----------------|-----------------|-----------------|-----|


E               C#m                         A
  Es tan mágico como todo pasó, en nuestro amor (nuestro amor)
           B
  nuestro dulce amor.
E                     C#m                           A
  Es tan fácil que ya nada me sorprende en nuestro amor (nuestro amor)
            B
  este increíble amor.

A                      B
  Todo fue como en un sueño
      A                        B
  en nuestro amor todo va sucediendo

      E      C#m          A          B
Y es así, así es y no hay nada que hacerle
     E      C#m      A         B
es así, así es, es así como sucede
       E
Este amor

E                        C#m
  Es tan sencillo que no sé como explicar                                    
           A
 nuestro amor     B|----5-4--------5-4-7-
                  G|---------------------
                  D|--4-----4-----4------
                
E                       C#m
  Y no se cuanto tiempo dure el amor 

pero hoy  B|----5-4--------5-4-7-
          G|---------------------
          D|--4-----4-----4------

          B
no hay nada mejor oohhh
 
A                      B
  Todo fue como en un sueño
       A                       B
  en nuestro amor todo va sucediendo.

       E      C#m          A          B
Y es así, así es y no hay nada que hacerle
     E      C#m      A         B
es así, así es, es así como sucede
       E       C#m          A          B
Este amor, así es y no hay nada que hacerle
     E      C#m     A         B
es así, así es, es así como sucede
       E
este amor.

Solo: E - C#m - A - B (x 2)
      C

       F      Dm          Bb          C
Y es así, así es y no hay nada que hacerle (nada que hacerle)
     F      Dm      Bb        C
es así, así es, es así como sucede (como sucede)
       F       Dm          Bb          C
Este amor, así es y no hay nada que hacerle (nada que hacerle)
     F      Dm      Bb         C
es así, así es, es así como sucede (como sucede)
       F
Este amor.

 Final  ( x 4)

E|-------------1-|
B|------1---1----|
G|----2---2------|
D|---------------|
A|---------------|
E|--1------------|
Acordes para:
    Colaboração e revisão:

    0 comentários

      mostrar mais comentários

      Conseguiu tocar?

      23tocaram1ainda não

      Grave um vídeo tocando Nuestro Amor e mande pra gente!

      00:00 / 00:00
      outros vídeos desta música
      repetirqualidadeautomática
      Outro vídeos desta música
        00:00 / 00:00
        automática
        OK