Cifra Club

Aprenda

Salva-me

RBD

Tab de baixo: Principal
                                    Q    S S S S E  E  E  E    
G||-------|-------|-------|-------|---------------------------| 
D||-------|-------|-------|-------|---------------------------| 
A||-------|-------|-------|-------|--4----------4-4--4--------| 
E||-------|-------|-------|-------|---------------------------| 
 
  Q    S S S S E  E  E  E     Q    S S S S E  E  E  E    
---------------------------|---------------------------| 
---------------------------|---------------------------| 
---------------------------|--2----------2-2--2--------| 
--4----------4-4--4--------|---------------------------| 
 
  Q    S S S S E  E  E  E                                                    
---------------------------|-------|-------|-------|-------|-------|-------| 
---------------------------|-------|-------|-------|-------|-------|-------| 
---------------------------|-------|-------|-------|-------|-------|-------| 
--2----------2-2--2--2-----|-------|-------|-------|-------|-------|-------| 
 
                  Q    S S S S E  E  E  E     Q    S S S S E  E  E  E    
-------|-------|---------------------------|---------------------------| 
-------|-------|---------------------------|---------------------------| 
-------|-------|---------------------------|--4----------4-4--4--------| 
-------|-------|--2----------2-2--2--2--2--|---------------------------| 
 
  Q    S S S S E  E  E  E     Q    S S S S E  E  E  E    
---------------------------|---------------------------| 
---------------------------|---------------------------| 
--2----------2-2--2--------|---------------------------| 
---------------------------|--2----------2-2--2--2-----| 
 
  Q    S S S S E  E  E  E     Q    S S S S E  E  E  E    
---------------------------|---------------------------| 
---------------------------|--4----------4-4--4--------| 
---------------------------|---------------------------| 
--4----------4-4--4--------|---------------------------| 
 
  Q    S S S S E  E  E  E     Q    S S S S E  E  E  E    
---------------------------|---------------------------| 
---------------------------|--6----------6-6--6--6--6--| 
---------------------------|---------------------------| 
--2----------2-2--2--------|---------------------------| 
 
  Q    S S S S E  E  E  E     Q    S S S S E  E  E  E    
---------------------------|---------------------------| 
---------------------------|--4----------4-4--4--------| 
---------------------------|---------------------------| 
--4----------4-4--4--------|---------------------------| 
 
  Q    S S S S E  E  E  E     Q    S S S S E  E  E  E    
---------------------------|---------------------------| 
---------------------------|--6----------6-6--6--------| 
---------------------------|---------------------------| 
--2----------2-2--2--------|---------------------------| 
 
  Q    S S S S E  E  E  E     Q    S S S S E  E  E  E    
---------------------------|---------------------------| 
---------------------------|---------------------------| 
--4----------4-4--4--------|---------------------------| 
---------------------------|--4----------4-4--4--------| 
 
  Q    S S S S E  E  E  E     Q    S S S S E  E  E  E    
---------------------------|---------------------------| 
---------------------------|---------------------------| 
--2----------2-2--2--------|---------------------------| 
---------------------------|--2----------2-2--2--2--2--| 
 
  Q    S S S S E  E  E  E     Q    S S S S E  E  E  E    
---------------------------|---------------------------| 
---------------------------|---------------------------| 
--4----------4-4--4--------|---------------------------| 
---------------------------|--4----------4-4--4--------| 
 
  Q    S S S S E  E  E  E     Q    S S S S E  E  E  E    
---------------------------|---------------------------| 
---------------------------|---------------------------| 
--2----------2-2--2--------|---------------------------| 
---------------------------|--2----------2-2--2--------| 
 
  Q    S S S S E  E  E  E     Q    S S S S E  E  E  E    
---------------------------|---------------------------| 
---------------------------|---------------------------| 
--4----------4-4--4--------|---------------------------| 
---------------------------|--4----------4-4--4--------| 
 
  Q    S S S S E  E  E  E     Q    S S S S E  E  E  E    
---------------------------|---------------------------| 
---------------------------|---------------------------| 
--2----------2-2--2--------|---------------------------| 
---------------------------|--2----------2-2--2--2-----| 
 
  Q    S S S S E  E  E  E     Q    S S S S E  E  E  E    
---------------------------|---------------------------| 
---------------------------|---------------------------| 
---------------------------|--4----------4-4--4--------| 
--2----------2-2--2--2--2--|---------------------------| 
 
  Q    S S S S E  E  E  E     Q    S S S S E  E  E  E    
---------------------------|---------------------------| 
---------------------------|---------------------------| 
--2----------2-2--2--------|---------------------------| 
---------------------------|--2----------2-2--2--2-----| 
 
  Q    S S S S E  E  E  E     Q    S S S S E  E  E  E    
---------------------------|---------------------------| 
---------------------------|--4----------4-4--4--------| 
---------------------------|---------------------------| 
--4----------4-4--4--------|---------------------------| 
 
  Q    S S S S E  E  E  E     Q    S S S S E  E  E  E    
---------------------------|---------------------------| 
---------------------------|--6----------6-6--6--6--6--| 
---------------------------|---------------------------| 
--2----------2-2--2--------|---------------------------| 
 
  Q    S S S S E  E  E  E     Q    S S S S E  E  E  E    
---------------------------|---------------------------| 
---------------------------|--4----------4-4--4--------| 
---------------------------|---------------------------| 
--4----------4-4--4--------|---------------------------| 
 
  Q    S S S S E  E  E  E     Q    S S S S E  E  E  E    
---------------------------|---------------------------| 
---------------------------|--6----------6-6--6--6--6--| 
---------------------------|---------------------------| 
--2----------2-2--2--------|---------------------------| 
 
  Q    S S S S E  E  E  E     Q    S S S S E  E  E  E    
---------------------------|---------------------------| 
---------------------------|---------------------------| 
--4----------4-4--4--------|---------------------------| 
---------------------------|--4----------4-4--4--------| 
 
  Q    S S S S E  E  E  E     Q    S S S S E  E  E  E    
---------------------------|---------------------------| 
---------------------------|---------------------------| 
--2----------2-2--2--------|---------------------------| 
---------------------------|--2----------2-2--2--2-----| 
 
  Q    S S S S E  E  E  E     Q    S S S S E  E  E  E    
---------------------------|---------------------------| 
---------------------------|--4----------4-4--4--------| 
---------------------------|---------------------------| 
--4----------4-4--4--------|---------------------------| 
 
  Q    S S S S E  E  E  E     Q    S S S S E  E  E  E    
---------------------------|---------------------------| 
---------------------------|--6----------6-6--6--6--6--| 
---------------------------|---------------------------| 
--2----------2-2--2--------|---------------------------| 
 
  Q    S S S S E  E  E  E     Q    S S S S E  E  E  E    
---------------------------|---------------------------| 
---------------------------|--4----------4-4--4--------| 
---------------------------|---------------------------| 
--4----------4-4--4--------|---------------------------| 
 
  Q    S S S S E  E  E  E     Q    S S S S E  E  E  E    
---------------------------|---------------------------| 
---------------------------|--6----------6-6--6--6--6--| 
---------------------------|---------------------------| 
--2----------2-2--2--------|---------------------------| 
 
  Q    S S S S E  E  E  E     Q    S S S S E  E  E  E    
---------------------------|---------------------------| 
---------------------------|--4----------4-4--4--------| 
---------------------------|---------------------------| 
--4----------4-4--4--------|---------------------------| 
 
  Q    S S S S E  E  E  E     Q    S S S S E  E  E  E    
---------------------------|---------------------------| 
---------------------------|--6----------6-6--6--6--6--| 
---------------------------|---------------------------| 
--2----------2-2--2--------|---------------------------| 
 
  Q    S S S S E  E  E  E     Q    S S S S E  E  E  E           
---------------------------|---------------------------|-----|| 
---------------------------|--4----------4-4--4--------|-----|| 
---------------------------|---------------------------|-----|| 
--4----------4-4--4--------|---------------------------|-----||
Composição de RBD
Colaboração e revisão:
  • Kelly rr
462 exibições

0 comentários

Mostrar mais comentários

Conseguiu tocar?

1 Tocaram 0 Ainda não

Grave um vídeo tocando Salva-me e mande pra gente!

00:00 / 00:00
outros vídeos desta música
repetir qualidade Automático
Outros vídeos desta música
00:00 / 00:00
Automático

Cifra Club Pro

Aproveite o Cifra Club com benefícios exclusivos e sem anúncios
7 dias grátis
Cifra Club Pro
Aproveite o Cifra Club com benefícios exclusivos e sem anúncios
7 dias grátis
OK