Cifra Club

Aprenda

Una Cancion

RBD

Cifra: Principal (violão e guitarra)
Tom: A
Intro: A E F#m D   dedilhado ( a Intro e o começo da musica )
       A E  D  E


A          E                F#m
 Hay unas que llegan al alma,
               D
que te hacen mover las palmas,
A          E                D E
 otras que llegan al corazón.
A           E              F#m
 Hay unas que se necesitan,
               D
otras que nunca se olvidan
A            E            D E
 que te hacen despertar pasion.


Refrão:
       A
Oyendo una cancion,
      E        F#m
para ti,para mi,
         D                 A
y que nos llegue al pensamiento,
        E            D
para vivir y expresar
         E            A
todo lo que yo siento,
E           F#m
 Quiero,tenerte,
       D               A E D E
te dedico esta cancion.


Observação: a partir deste momento, para-se com o dedilhado e começa-se a tocar normalmente.

E|-----------------------------------------------------|
B|------10-----10/12--10-----12/14--12-12h13--12--10---|
G|---9------9-------------9----------------------------|
D|-----------------------------------------------------|
A|-----------------------------------------------------|
E|-----------------------------------------------------|


A        E                F#m
 Todo comenzó con un vaso,
          D            A
un trago caro y escaso,
        E                D   E
que me subio a la desolacion,
A          E             F#m
 oyendo al grupo del bar,
      D
tocar mi favorita
A        E               D    E
 se me subio la desesperacion.


Refrão:
       A
Oyendo una cancion,
      E        F#m
para ti,para mi,
         D                 A
y que nos llegue al pensamiento,
        E            D
para vivir y expresar
         E            A
todo lo que yo siento,
E           F#m
 Quiero,tenerte,
       D
te dedico esta cancion.

Solo:

      A      E     D         E        A          E :F#m G F#m E:  F#m         D
E|-----------------------------------------------------------------------------------------|
B|--------------3---2----3h2-2--------5-5--------5/7b7b7b7b7b7b7b-----------5---3---5---3--|
G|--------4---2----------------4---2------2--2-2-------------------------------------------|
D|--4---2----------------------------------------------------------------------------------|
A|-----------------------------------------------------------------------------------------|
E|-----------------------------------------------------------------------------------------|

                    A             E             D              E        A              E
E|---------------------------------------------------------------------------------------|
B|--2--3--2--0---------5-5----------3---3---2----------5-5--------3--3--2-210--9--7-9---|
G|--------------2--2--------2---2--------------2-2~-2-------2--2-------------------------|
D|---------------------------------------------------------------------------------------|
A|---------------------------------------------------------------------------------------|
E|---------------------------------------------------------------------------------------|

                  F#m                     D
E|---------------------------------------7--9--10--9--10-1012b~-------------------------|
B|--7--5--7--5--3--2--3--2--0--2--3--5---------------------------------------------------|
G|---------------------------------------------------------------------------------------|
D|---------------------------------------------------------------------------------------|
A|---------------------------------------------------------------------------------------|
E|---------------------------------------------------------------------------------------|


Obs:A parte q ta entre | | tem q faze beim rapido...( e so ouvi a musica....)

Ponte:

F#m           E
 Perdiendo el tiempo,
A        E
   pensando en ti,
F#m        E           A
 yo se que nunca vas a regresar
    E
a mi.

       B         F#       G#M
Una cancion,para ti,para mi
          E                    B
y que nos llegue al pensamiento
       F#          E       F#
para vivir y expresar todo lo que
       B     F#           G#M
yo siento... Quiero,tenerte,
     E              B   F#            E
te dedico esta cancion.  Ohh ohhh ooh oh
  F#                  B   F#   G#M   E           B
te dedico esta cancion.
Composição de C.J Turbay Daccaret / Jose Roberto Matera
Colaboração e revisão:
  • Vinícius
  • Felipe Vieira
127.623 exibições
    • ½ Tom
    • A
    • Bb
    • B
    • C
    • Db
    • D
    • Eb
    • E
    • F
    • F#
    • G
    • Ab
  • Adicionar à lista

    0 comentários

    Mostrar mais comentários

    Conseguiu tocar?

    16 Tocaram 2 Ainda não

    Grave um vídeo tocando Una Cancion e mande pra gente!

    00:00 / 00:00
    outros vídeos desta música
    repetir qualidade Automático
    Outros vídeos desta música
    00:00 / 00:00
    Automático

    Cifra Club Pro

    Aproveite o Cifra Club com benefícios exclusivos e sem anúncios
    7 dias grátis
    Cifra Club Pro
    Aproveite o Cifra Club com benefícios exclusivos e sem anúncios
    7 dias grátis
    OK