Cifra Club

Too Much Pride

Chris Rea

Cifra: Principal (violão e guitarra)
Selo Cifra Club: esta cifra foi revisada para atender aos critérios oficiais da nossa Equipe de Qualidade.
tom: Dm
INTRO:
         A   Em D A  A     A  Em D A  A
E -5-7b-7\5-
B|----------|
G|----------|
D|----------|
A|----------|
E|----------|


VERSE:
 A        A      Em       D          A   A
Say good morning this is your lucky day
 A             A      Em              D    A  A
Most of your problems they're gonna slip away
A             A       Em       D            A   A
Oh I'm gonna help you,  I can show you the way
A                A             Em  D           A   A
So give me some time my friend    hear what I say


CHORUS:
 A                 D               A
You got too much pride, too much pride
  A            Em    D                    A   A
Drive yourself crazy,  you got too much pride


VERSE:
 A                  A       Em    D             A    A
Take a look at the downside   anyway that you choose
 A               A     Em             D          A   A
Out here on the upside you ain't got nothing to lose
A             A       Em       D            A  A
Oh I'm gonna help you,  I can show you the way
A                A             Em     D           A  A
So give me some time my friend   and hear what I say


CHORUS:
 A                 D               A
You got too much pride, too much pride
  A            Em    D                    A   A
Drive yourself crazy,  you got too much pride


BDA K:
G                         D
 Too much pride it will drive you wild
         A
It will burn your soul, cut you deep inside
G                   D
 Drag you down, get in your way
           A                            A
So take a look my friend listen what I say


INSTRUMENTAL/G  O:
A   Em D A
A   Em D A
A   Em D A
A   Em D A

             OR

E|---------|---------|------|
B|---------|---------|------|
G|---------|---------|------|
D|---------|---------|------|
A|---0-3-0-|-0-------|----0-|
E|-3-------|---3-2-0-|-0----|

E|---------|---------|------|
B|---------|---------|------|
G|---------|---------|------|
D|---------|---------|------|
A|---0-3-0-|-0-------|----0-|
E|-3-------|---3-2-0-|-0----|

E|---------|---------|------|
B|---------|---------|------|
G|---------|---------|------|
D|---------|---------|------|
A|---0-3-0-|-0-------|----0-|
E|-3-------|---3-2-0-|-0----|

E|---------|---------|------|
B|---------|---------|------|
G|---------|---------|------|
D|---------|---------|------|
A|---0-3-0-|-0-------|----0-|
E|-3-------|---3-2-0-|-0----|


CHORUS:
 A                 D               A
You got too much pride, too much pride
  A            Em    D                    A   A
Drive yourself crazy,  you got too much pride

 A                 D               A
You got too much pride, too much pride
  A            Em    D                    A   A
Drive yourself crazy,  you got too much pride


OUTRO:
  A                 D               A
(You got too much pride, too much pride
  A            Em    D                    A   A
Drive yourself crazy,  you got too much pride)

  A                 D               A
(You got too much pride, too much pride
  A            Em    D                    A   A
Drive yourself crazy,  you got too much pride) - FDE  OUT



===================== CAPO: NONE =====================


SONG:   TOO MUCH PRIDE
ARTIST: CHRIS DA 
TAB BY: C N CZARSKI


                TOO MUCH PRIDE
                  CHRIS DA 

CAPO: NONE

INTRO:
           C   Gm F C  C     C  Gm F C  C
E -8-10b-10\8-
B|------------|
G|------------|
D|------------|
A|------------|
E|------------|


VERSE:
 C        C      Gm       F          C   C
Say good morning this is your lucky day
 C             C      Gm              F    C  C
Most of your problems they're gonna slip away
C             C       Gm       F            C   C
Oh I'm gonna help you,  I can show you the way
C                C             Gm  F           C   C
So give me some time my friend    hear what I say


CHORUS:
 C                 F               C
You got too much pride, too much pride
  C            Gm    F                    C   C
Drive yourself crazy,  you got too much pride


VERSE:
 C                  C       Gm    F             C    C
Take a look at the downside   anyway that you choose
 C               C     Gm             F          C   C
Out here on the upside you ain't got nothing to lose
C             C       Gm       F            C  C
Oh I'm gonna help you,  I can show you the way
C                C             Gm     F           C  C
So give me some time my friend   and hear what I say


CHORUS:
 C                 F               C
You got too much pride, too much pride
  C            Gm    F                    C   C
Drive yourself crazy,  you got too much pride


BDA K:
A#                        F
 Too much pride it will drive you wild
         C
It will burn your soul, cut you deep inside
A#                  F
 Drag you down, get in your way
           C                            C
So take a look my friend listen what I say


INSTRUMENTAL/G  O:
C   Gm F C
C   Gm F C
C   Gm F C
C   Gm F C

             OR

E|---------|---------|------|
B|---------|---------|------|
G|---------|---------|------|
D|-----1---|---------|------|
A|-1-3---3-|-3-1-0---|----3-|
E|---------|-------3-|-3----|

E|---------|---------|------|
B|---------|---------|------|
G|---------|---------|------|
D|-----1---|---------|------|
A|-1-3---3-|-3-1-0---|----3-|
E|---------|-------3-|-3----|

E|---------|---------|------|
B|---------|---------|------|
G|---------|---------|------|
D|-----1---|---------|------|
A|-1-3---3-|-3-1-0---|----3-|
E|---------|-------3-|-3----|

E|---------|---------|------|
B|---------|---------|------|
G|---------|---------|------|
D|-----1---|---------|------|
A|-1-3---3-|-3-1-0---|----3-|
E|---------|-------3-|-3----|


CHORUS:
 C                 F               C
You got too much pride, too much pride
  C            Gm    F                    C   C
Drive yourself crazy,  you got too much pride

 C                 F               C
You got too much pride, too much pride
  C            Gm    F                    C   C
Drive yourself crazy,  you got too much pride


OUTRO:
  C                 F               C
(You got too much pride, too much pride
  C            Gm    F                    C   C
Drive yourself crazy,  you got too much pride)

  C                 F               C
(You got too much pride, too much pride
  C            Gm    F                    C   C
Drive yourself crazy,  you got too much pride) - FDE  OUT
Outros vídeos desta música
    11 exibições
      • ½ Tom
      • Am
      • Bbm
      • Bm
      • Cm
      • C#m
      • Dm
      • Ebm
      • Em
      • Fm
      • F#m
      • Gm
      • G#m
    • Adicionar à lista

    Afinação da cifra

    Afinador online

      0 comentários

      Ver todos os comentários

      Entre para o Cifra Club PRO

      Tenha acesso a benefícios exclusivos no App e no Site

      • Chega de anúncios

      • Badges exclusivas

      • Mais recursos no app do Afinador

      • Atendimento Prioritário

      • Aumente seu limite de lista

      • Ajude a produzir mais conteúdo

      Cifra Club Pro

      Aproveite o Cifra Club com benefícios exclusivos e sem anúncios
      Cifra Club Pro
      Aproveite o Cifra Club com benefícios exclusivos e sem anúncios
      Ops (: Contenido disponible sólo en portugués.
      OK