Cifra Club

Mel

Rebanhão

Cifra: Principal (violão e guitarra)
Selo Cifra Club: esta cifra foi revisada para atender aos critérios oficiais da nossa Equipe de Qualidade.
tom: A
[Intro] A  D7M  C#7  F#m 
        Dm  A  B7  E

[Solo]
             A     D7M     C#7      F#m      Dm      A
E|----------------------------------------------------------|
B|----------------------------------------------------------|
G|-4h6-4---4s6-----4h6-4------4s6-4-4s6----4-4s5---4-4s6----|
D|-------7---------------7-6------------7--------7----------|
A|----------------------------------------------------------|
E|----------------------------------------------------------|
     B7       E
E|---7s9-7--------------------------------------------------|
B|---------10-9h10-9-7-9-10-10s12---------------------------|
G|-9--------------------------------------------------------|
D|----------------------------------------------------------|
A|----------------------------------------------------------|
E|----------------------------------------------------------|

A             D7M    C#7           F#m
  Dentro de você      mora um coração
Dm       A           B7                 E
   Pequeninho frágil,  como bolha de sabão
A              D7M    C#7                 F#m
  Que esta cansado    de tempestade e vulcões
Dm          A      B7            E
   Muitos invernos   e poucos verões
D              E                F#m  E  F#m
  Que esta cansado do gosto do fel
D              E                F#m  E  F#m
  Que esta cansado do gosto do fel
D               E          F#m  E  F#m
  Jesus é mais doce que o mel
D               E          F#m  E  F#m
  Jesus é mais doce que o mel

             A     D7M     C#7      F#m      Dm      A
E|----------------------------------------------------------|
B|----------------------------------------------------------|
G|-4h6-4---4s6-----4h6-4------4s6-4-4s6----4-4s5---4-4s6----|
D|-------7---------------7-6------------7--------7----------|
A|----------------------------------------------------------|
E|----------------------------------------------------------|
     B7       E
E|----------------------------------------------------------|
B|---10s12-10-9-9s10-11-12----------------------------------|
G|-9--------------------------------------------------------|
D|----------------------------------------------------------|
A|----------------------------------------------------------|
E|----------------------------------------------------------|

A             D7M  C#7             F#m
 Dentro de você      mora um coração
Dm       A           B7                 E
   Pequeninho frágil,  como bolha de sabão
A              D7M  C#7                    F#m
  Que esta cansado    de tempestade e vulcões
Dm          A      B7            E
   Muitos invernos   e poucos verões
D              E                F#m  E  F#m
  Que esta cansado do gosto do fel
D              E                F#m  E  F#m
  Que esta cansado do gosto do fel
D               E          F#m  E  F#m
  Jesus é mais doce que o mel
D               E          F#m  E  F#m
  Jesus é mais doce que o mel

[Final] A
Outros vídeos desta música
    2.261 exibições
      • ½ Tom
      • A
      • Bb
      • B
      • C
      • Db
      • D
      • Eb
      • E
      • F
      • F#
      • G
      • Ab
    • Adicionar à lista

    Afinação da cifra

    Afinador online

      0 comentários

      Ver todos os comentários

      Entre para o Cifra Club PRO

      Tenha acesso a benefícios exclusivos no App e no Site

      • Chega de anúncios

      • Badges exclusivas

      • Mais recursos no app do Afinador

      • Atendimento Prioritário

      • Aumente seu limite de lista

      • Ajude a produzir mais conteúdo

      Cifra Club Pro

      Aproveite o Cifra Club com benefícios exclusivos e sem anúncios
      Cifra Club Pro
      Aproveite o Cifra Club com benefícios exclusivos e sem anúncios
      Ops (: Contenido disponible sólo en portugués.
      OK