Cifra Club

Aprenda

Fade Away

Rebelution

Cifra: Principal (violão e guitarra)
Tom: E
[Intro]
 C#m                        A
E|-------------------------|------------------------|
B|-------0-----------0-----|-------0h2p0-------0h2p-|
G|-------1-----------1-----|-------1-----------1----|
D|----2-----2-----2-----2--|----2-----------2-------|
A|-4-----------4-----------|-0-----------0----------|
E|-------------------------|------------------------|

   E
E|-----------------------|-------------------------|
B|--------0h2p------0h2p-|---------0h2p------0h2p--|
G|------1---------1------|-------1---------1-------|
D|----2---------2--------|-----2---------2---------|
A|-----------------------|-------------------------|
E|-0----------0----------|--0----------0-----------|

(A introdução pode ser tocada durante toda a música)

[Verso 1] 

C#m                 A
When all of this is said and done
 E
You will be alone
 E
Cuz I know this won't last forever
C#m               A
Here's a toast to your unknown
E
Mother of us all
E
You and I are one together

[Refrão]

C#m   A                                 E
E
I know this won't last forever
C#m  A                                  E
E
But I wish this would last forever

[Solo] (x2)
C#m   A    E

[Verso 2]
C#m            A
Waking up to your eye
E
I don't have an answer
E
and so I think I know you better
C#m           A
Waking up to your eye
E
And multi-colored sunsets
E
You're the one who gives me shelter

[Refrão]
C#m A                                  E
E
I know this won't last forever
C#m A                                   E
E
But I wish this would last forever

[Solo] (x2)
C#m   A    E

[Ponte]
C#m         A             E
Keeping it calm
          E                      C#m
Until we all fade away and move on
            A             E
Keeping it calm
         E                       C#m A E
Until we all fade away you live on
Colaboração e revisão:
  • Maykon
  • Moisés Borges
1.082 exibições
    • ½ Tom
    • A
    • Bb
    • B
    • C
    • Db
    • D
    • Eb
    • E
    • F
    • F#
    • G
    • Ab
  • Adicionar à lista

    0 comentários

    Mostrar mais comentários

    Conseguiu tocar?

    0 Tocaram 0 Ainda não

    Grave um vídeo tocando Fade Away e mande pra gente!

    00:00 / 00:00
    outros vídeos desta música
    repetir qualidade Automático
    Outros vídeos desta música
    00:00 / 00:00
    Automático

    Cifra Club Pro

    Aproveite o Cifra Club com benefícios exclusivos e sem anúncios
    7 dias grátis
    Cifra Club Pro
    Aproveite o Cifra Club com benefícios exclusivos e sem anúncios
    7 dias grátis
    OK