Cifra Club

Feeling Alright Intro

Rebelution

Cifra: Principal (violão e guitarra)
Selo Cifra Club: esta cifra foi revisada para atender aos critérios oficiais da nossa Equipe de Qualidade.
tom: G
Chords: Em Am7 G D

E|----------------------0h2p0-------2--5-3-----------------------------------|
B|-------0--1--0--------------3-----3--3-3-----------0--1--0-----------------|
G|---0h2-----------------------0----------------0h2---------------2-0--0-----|
D|----------------0--------------------------------------------0--0---4---0--|
A|----------0-------------------2-----------------------0-----------------2--|
E|0------------3---------------------------0--0------------3-----------------|

E|---------------------------------------------------------------------------|
B|-----------------8-10-12--13----15-11-----13---------------7-----7---8-----|
G|---0h2p0---0-----9-9--11--14---14--12----12----------------9-----9---9-----|
D|-4-------4------------------------------------------------9--------9----|
A|----------------7--7--9---12--12---10--10-------------------------7----7---|
E|-------------0------------------------------------------7-7---7------------|

E|--5-5---3-3----------------------------------------------------------------|
B|--5-5---3-3--------7----------7----------8-10-12--10/13----13-13\11----11--|
G|--5-5---4-4-----7---7------7---7---------9-9--11----------0-----------0----|
D|----7-----5------7-----7----7-----7----------------------------------------|
A|----7-----5--3/5------5--------------7-7---7--9---9/12--12----12\10-10---0-|
E|-5--5--3--3--------------7-------7-----------------------------------------|

e|0h2p0-----------0----------------------------------------------------------|
B|------3----------3---------0-1---1--0----0---------------------------------|
G|--------0----------0----0h2-----2------0-----2-0---0------0h2p0--0---------|
D|--------------0---0-----------------------0--0---4---0--4------4-----------|
A|----------2---------2--------0-0---------------------2---------------------|
E|-----------------------0------------3-3----------------------------0-------|

E|-----------------|
B|-8-10-12-13---15-|
G|-9-9--11-14--14--|
D|-----------------|
A|-7-7--9--12-12---|
E|-----------------|

E|---------------------0-----------------------------------------------------|
B|-11---13---------------3---------0-1--3------------------------------------|
G|-12--12-------------------0---0h2-----------2--0---0-------0h2p0---0-------|
D|----------------0-----0--------------0---0----4---0---4-------4---------|
A|-10-10-----------2----------------0------------------2---------------------|
E|----------------------------0-0-------0-------------------------------0----|

 Em                    Am7           G                D
Well it’s about that time for us to look around and meet somebody new

 Em          Am7         G              D
Let’s all welcome in familiar faces, perhaps somebody who,

 Em         Am7     G   D
Has got a conflict in their life

 Em               Am7          G                    D
Tell them you’re sorry, but there’s ways to change the wrong to right

 Em                   Am7              G                 D
See we can sit in a distant haze and watch rain clouds pour thoughts of

                Em              Am7        G     D
greatness and help our troubles sail real far away.

 Em                        Am7                     G
Well it’s a struggle – everyday we’re stressing, but what’s a life without

  D
dedication?

 Em                         Am7               G               D
I’m trying to pick up the souls intention to soak in music relaxation

 Em                                  Am7       G      D
We’re feeling good, we’re feeling alright

 Em                                  Am7       G      D
We’re feeling good, we’re feeling alright

 Em                  Am7           G                  D
In a moment I’ll be on my way, to better days, while life is changing

 Em                          Am7                   G
And even though I’ve had my share of pain, I’ve been sympathizing and

 D
realizing

 Em                                    Am7
I’ve got a feeling that we can be a better friend

          G                  D
Simply complimenting every now and then

 Em                    Am7
In the morning I wake up and miss the night before

 D
Cuz I love the music more and more

 Em                   Am7              G                 D
See we can sit in a distant haze and watch rain clouds pour thoughts of

               Em               Am7       G      D
greatness to help our troubles sail real far away

 Em                     Am7                      G
While it’s a struggle everyday we’re stressing, but what’s a life without

 D
dedication?

 Em                        Am7                G             D
I’m trying to pick up the souls intention to soak in music relaxation
Outros vídeos desta música
    21.066 exibições
      • ½ Tom
      • A
      • Bb
      • B
      • C
      • Db
      • D
      • Eb
      • E
      • F
      • F#
      • G
      • Ab
    • Adicionar à lista

    Afinação da cifra

    Afinador online

      0 comentários

      Ver todos os comentários

      Entre para o Cifra Club PRO

      Tenha acesso a benefícios exclusivos no App e no Site

      • Chega de anúncios

      • Badges exclusivas

      • Mais recursos no app do Afinador

      • Atendimento Prioritário

      • Aumente seu limite de lista

      • Ajude a produzir mais conteúdo

      Cifra Club Pro

      Aproveite o Cifra Club com benefícios exclusivos e sem anúncios
      Cifra Club Pro
      Aproveite o Cifra Club com benefícios exclusivos e sem anúncios
      Ops (: Contenido disponible sólo en portugués.
      OK