Cifra Club

Night on fire

Reckless Love

Cifra: Principal (violão e guitarra)
Tom: G#
INTRO

E|-------------------------------------------|
B|-------------------------------------------|
G|-------------------------------------------|
D|10---10/----------10---10/-----------x-10--|
A|10---10/----------10---10/-----------x-10--|
E|8-----8/----------8-----8/-----------x--8--|

CHORUS

E|----------------------------|
B|----------------------------|
G|5-5-55--------8-8-88--------|
D|5-5-55--------8-8-88--------|
A|3-3-33-6-6-66-6-6-66-8-8-88-|
E|-------4-4-44--------6-6-66-|

VERSE

E|-------------------------------------------------|
B|-------------------------------------------------|
G|-----------------------------8-8-88--------------|
D|10-10/-----10-10/-----6-6-66-8-8-88-8-8-88-8--9--|
A|10-10/-----10-10/-----6-6-66-6-6-66-8-8-88-8--9--|
E|8---8/-----8---8/-----4-4-44--------6-6-66-6--7--|

PRE-CHORUS

E|--------------------------|
B|--------------------------|
G|--------------------------|
D|6-----8--6------6-6-6-8-8-|
A|6-----8--6------6-6-6-8-8-|
E|4-----6--4------4-4-4-6-6-|

POST-CHORUS

E|----------------|
B|----------------|
G|----------------|
D|----------------|
A|6-6-6-----6-6-6-|
E|4-4-4-----4-4-4-|

SOLO

E|-----------------------------------------8-8-------11p8---13-13-11p8-|
B|--------------------------8-8-------11p8-----11p8-------11-----------|
G|------------8-8------10p8-----10p8------10---------------------------|
D|8h10~--10p8----10p8------10------------------------------------------|
A|-----------10--------------------------------------------------------|
E|---------------------------------------------------------------------|


E|15p11--15p11--15p11-16p11--16p11--16p11-15p11--15p11--15p11-13-----10h11p10-------|
B|-----13-----13-----------13-----13-----------13-----13--------11-13--------13-11--|
G|o---------------------------------------------------------------------------------|o
D|----------------------------------------------------------------------------------|
A|o---------------------------------------------------------------------------------|o
E|----------------------------------------------------------------------------------|

E|-------10-11-10-------18--16-15-13------18-18----18-18------------|
B|13~--13--------13-11----------------------------------------------|
G|-------------------------------------/15------/15------15---------|(whammy)
D|------------------------------------------------------------------|
A|------------------------------------------------------------------|
E|------------------------------------------------------------------|
exibições 744
Acordes para:
    Composição: RECKLESS LOVE Colaboração e revisão:
    • Gabrielle Gomes
    • EH fidelis

    0 comentários

    mostrar mais comentários

    Conseguiu tocar?

    0 tocaram 0 ainda não

    Grave um vídeo tocando Night on fire e mande pra gente!

    00:00 / 00:00
    outros vídeos desta música
    repetir qualidade Automático
    Outros vídeos desta música
    00:00 / 00:00
    Automático
    OK