Cifra Club

366

Refused

Cifra: Principal (violão e guitarra)
Selo Cifra Club: esta cifra foi revisada para atender aos critérios oficiais da nossa Equipe de Qualidade.
tom: Bm
E|---------------------------------|------------------------------------------|
B|---------------------------------|------------------------------------------|
G|---------------------------------|------------------------------------------|
D|-------------4-------------------|-------------4----------------------------|
A|-----------5-------------5---3-5-|-4---------5-------------5---3-5----------|
E|-2-2-0---3-----2---2-0-3---2-----|---2-0---3-----2---2-0-3---2--------------|

E|---------------------------------|------------------------------------------|
B|---------------------------------|------------------------------------------|
G|---------------------------------|------------------------------------------|
D|-------------4-------------------|------------------------------------------|
A|-----------5-------------5---3-5-|-4-------5---3-5-4-------5---3-5----------|
E|-2-2-0---3-----2---2-0-3---2-----|---2-0-3---2-------2-0-3---2--------------|


[Verse 1]     0:17 - 0:31

E|---------------------------------|------------------------------------------|
B|---------------------------------|------------------------------------------|
G|---------------------------------|------------------------------------------|
D|-------------4-------------------|-------------4----------------------------|
A|-----------5-------------5---3-5-|-4---------5-------------5---3-5----------|
E|-2-2-0---3-----2---2-0-3---2-----|---2-0---3-----2---2-0-3---2--------------|

E|---------------------------------|------------------------------------------|
B|---------------------------------|------------------------------------------|
G|---------------------------------|------------------------------------------|
D|-------------4-------------------|------------------------------------------|
A|-----------5-------------5---3-5-|-4-------5---3-5-4-------5----------------|
E|-2-2-0---3-----2---2-0-3---2-----|---2-0-3---2-------2-0-3---2--------------|


0:31 - 0:44

E|---------------------------------|------------------------------------------|
B|---------------------------------|------------------------------------------|
G|---------------------------------|------------------------------------------|
D|-------------4-------------------|-------------4----------------------------|
A|-----------5-------------5---3-5-|-4---------5-------------5---3-5----------|
E|-2-2-0---3-----2---2-0-3---2-----|---2-0---3-----2---2-0-3---2--------------|

E|---------------------------------|------------------------------------------|
B|---------------------------------|------------------------------------------|
G|---------------------------------|------------------------------------------|
D|-------------4-------------------|------------------------------------------|
A|-----------5-------------5---3-5-|-4-------5---3-5-4-------5---3-5----------|
E|-2-2-0---3-----2---2-0-3---2-----|---2-0-3---2-------2-0-3---2--------------|


[Pre-Chorus]     0:44 - 0:57

E|--------------x-x-------------------x-x----------------------------------------|
B|--------------x-x-------------------x-x----------------------------------------|
G|--------------x-x-------------------x-x----------------------------------------|
D|--------------x-x-------------------x-x----------------------------------------| repeat x4
A|-4-4-4-4-4-5--x-x----7-7-7-10-10-10-x-x----------------------------------------|
E|-2-2-2-0-2-3--x-x----5-5-5-8--8--0--x-x----------------------------------------|


[Riff]     0:57 - 1:10

E|---------------------------------|------------------------------------------|
B|---------------------------------|------------------------------------------|
G|---------------------------------|------------------------------------------|
D|-------------4-------------------|-------------4----------------------------|
A|-----------5-------------5---3-5-|-4---------5-------------5---3-5----------|
E|-2-2-0---3-----2---2-0-3---2-----|---2-0---3-----2---2-0-3---2--------------|

E|---------------------------------|------------------------------------------|
B|---------------------------------|------------------------------------------|
G|---------------------------------|------------------------------------------|
D|-------------4-------------------|------------------------------------------|
A|-----------5-------------5---3-5-|-4-------5---3-5-4-------3----------------|
E|-2-2-0---3-----2---2-0-3---2-----|---2-0-3---2-------2-0-3------------------|


[Chorus]     1:11 - 1:17

E|-0--------------------------------------------------------------------------|
B|-0--------------------------------------------------------------------------|
G|-0-------------------9------------------------------------------------------|
D|-2-------------------9------------------------------------------------------|
A|-3---------------2-8-7-----------------2-8----------------------------------|
E|-----------0-2-0-----------------0-2-0--------------------------------------|
             . . . . .             . . . . .


1:17 - 1:36

E|---------------------------------------------------------------------------|
B|---------------------------------------------------------------------------|
G|---------------------------------------------------------------------------|
D|-11-11-11--12-12-12--14-14-14--12-14--11-11-11-11-11--12-12-12--12-14------| repeat x3
A|-9--9--9---9--9--9---9--9--9---9--9---12-12-12-12-12--12-12-12--12-12------|
E|--------------------------------------10-10-10-10-10--10-10-10--10-10------|

1:36 - 1:46

E|---------------------------------------------------------------------------------------|
B|---------------------------------------------------------------------------------------|
G|---------------------------------------------------------------------------------------|
D|-11-11-11--12-12-12--14-14-14--12-14--11--11-11-11-11-11-11-11-11----------------------|
A|-9--9--9---9--9--9---9--9--9---9--9---12--12-12-12-12-12-12-12-12--------2-8-8-8-------|
E|--------------------------------------10--10-10-10-10-10-10-10-10--0-2-0---------------|
                                            .  .  .  .  .  .  .  .   . . . .

[Verse 2]     1:46 - 1:53

Bass only
E|-----------------------------------|----------------------------------------|
B|-----------------------------------|----------------------------------------|
G|-----------------------------------|----------------------------------------|
D|-----------------------------------|----------------------------------------|
A|-----------------------------------|----------------------------------------|
E|-----------------------------------|----------------------------------------|


1:53 - 2:06

E|-----------------------------|----------------------------------------------|
B|-----------------------------|----------------------------------------------|
G|-----------------------------|----------------------------------------------|
D|------------4----------------|------------4---------------------------------|
A|----------5------------------|----------5-----------------------------------|
E|-2-2-0--3-----2--------------|-2-2-0--3-----2-------------------------------|

E|-----------------------------|----------------------------------------------|
B|-----------------------------|----------------------------------------------|
G|-----------------------------|----------------------------------------------|
D|------------4----------------|----------------------------------------------|
A|----------5------------------|-4-------5---3-5-4-------5---3-5--------------|
E|-2-2-0--3-----2--------------|---2-0-3---2-------2-0-3---2------------------|


2:06 - 2:19

E|---------------------------------|------------------------------------------|
B|---------------------------------|------------------------------------------|
G|---------------------------------|------------------------------------------|
D|-------------4-------------------|-------------4----------------------------|
A|-----------5-------------5---3-5-|-4---------5-------------5---3-5----------|
E|-2-2-0---3-----2---2-0-3---2-----|---2-0---3-----2---2-0-3---2--------------|

E|---------------------------------|------------------------------------------|
B|---------------------------------|------------------------------------------|
G|---------------------------------|------------------------------------------|
D|-------------4-------------------|------------------------------------------|
A|-----------5-------------5---3-5-|-4-------5---3-5-4-------5---3-5----------|
E|-2-2-0---3-----2---2-0-3---2-----|---2-0-3---2-------2-0-3---2--------------|


[Pre-Chorus]     2:19 - 2:32

E|--------------x-x-------------------x-x----------------------------------------|
B|--------------x-x-------------------x-x----------------------------------------|
G|--------------x-x-------------------x-x----------------------------------------|
D|--------------x-x-------------------x-x----------------------------------------| repeat x4
A|-4-4-4-4-4-5--x-x----7-7-7-10-10-10-x-x----------------------------------------|
E|-2-2-2-0-2-3--x-x----5-5-5-8--8--0--x-x----------------------------------------|


[Riff]     2:32 - 2:45

E|---------------------------------|------------------------------------------|
B|---------------------------------|------------------------------------------|
G|---------------------------------|------------------------------------------|
D|-------------4-------------------|-------------4----------------------------|
A|-----------5-------------5---3-5-|-4---------5-------------5---3-5----------|
E|-2-2-0---3-----2---2-0-3---2-----|---2-0---3-----2---2-0-3---2--------------|

E|---------------------------------|------------------------------------------|
B|---------------------------------|------------------------------------------|
G|---------------------------------|------------------------------------------|
D|-------------4-------------------|------------------------------------------|
A|-----------5-------------5---3-5-|-4-------5---3-5-4-------3----------------|
E|-2-2-0---3-----2---2-0-3---2-----|---2-0-3---2-------2-0-3------------------|


[Chorus]    2:45 - 2:51

E|---------------------------------------------------------------------------|
B|---------------------------------------------------------------------------|
G|--------------------9s0----------------------------------------------------|
D|--------------------9s0----------------------------------------------------|
A|-3s0----------------7s0-----------------------------------------------------|
E|---------------------------------------------------------------------------|
                      

2:51 - 3:11

E|---------------------------------------------------------------------------|
B|---------------------------------------------------------------------------|
G|---------------------------------------------------------------------------|
D|-11-11-11--12-12-12--14-14-14--12-14--11-11-11-11-11--12-12-12--12-14------| repeat x3
A|-9--9--9---9--9--9---9--9--9---9--9---12-12-12-12-12--12-12-12--12-12------|
E|--------------------------------------10-10-10-10-10--10-10-10--10-10------|


3:11 - 3:18

E|---------------------------------------------------------------------------------------|
B|---------------------------------------------------------------------------------------|
G|---------------------------------------------------------------------------------------|
D|-11-11-11--12-12-12--14-14-14--12-14--11--11-11-11-11-11-11-11-11----------------------|
A|-9--9--9---9--9--9---9--9--9---9--9---12--12-12-12-12-12-12-12-12--------2-8-8-8-------|
E|--------------------------------------10--10-10-10-10-10-10-10-10--0-2-0---------------|
                                            .  .  .  .  .  .  .  .   . . . .

[Outro]    3:18 - 3:29   Time signature is now 7/8

Bass Only

E|--------------------------------|-------------------------------------------|
B|--------------------------------|-------------------------------------------|
G|--------------------------------|-------------------------------------------|
D|--------------------------------|-------------------------------------------|
A|--------------------------------|-------------------------------------------|
E|--------------------------------|-------------------------------------------|


3:29 - end  Time signature is still 7/8

E|---------------------------------|
B|---------------------------------|
G|-4-------5-----------------------|
D|---4-5-2---0-2-------------------| Repeat until end. Palm muted until approx. 4:00.
A|---------------------------------|
E|---------------------------------|
   

************************************

| x   Dead note
| s   Side
| .  Palm mute
Outros vídeos desta música
    13 exibições
      • ½ Tom
      • Am
      • Bbm
      • Bm
      • Cm
      • C#m
      • Dm
      • Ebm
      • Em
      • Fm
      • F#m
      • Gm
      • G#m
    • Adicionar à lista

    Afinação da cifra

    Afinador online

      0 comentários

      Ver todos os comentários

      Entre para o Cifra Club PRO

      Tenha acesso a benefícios exclusivos no App e no Site

      • Chega de anúncios

      • Badges exclusivas

      • Mais recursos no app do Afinador

      • Atendimento Prioritário

      • Aumente seu limite de lista

      • Ajude a produzir mais conteúdo

      Cifra Club Pro

      Aproveite o Cifra Club com benefícios exclusivos e sem anúncios
      Cifra Club Pro
      Aproveite o Cifra Club com benefícios exclusivos e sem anúncios
      Ops (: Contenido disponible sólo en portugués.
      OK