Cifra Club

Tannhäuser

Refused

Cifra: Principal (violão e guitarra)
Selo Cifra Club: esta cifra foi revisada para atender aos critérios oficiais da nossa Equipe de Qualidade.
tom: D
E|-------|---------|
B|-------|---------|
G|-------|---------|
D|-------|---------|
A|-5---5-|-6-6-5---|
E|---0---|-------0-|
   
   
[Verse 1]

E|---------|
B|---------|
G|---------|
D|-8-8-7-0-| 
A|-6-6-5-0-| 
D|-------0-|
”so where do we go from here...”


[Stick]

E|----------------5-5--4-4--------------------------------------------|
B|-5-5-5--6-6-6-6-----------3-3-3-3-3-3-3-3-3-3-3-3-3-3---------------|
G|------------------------------------------------------4-4-4-4-4-4-4-|
D|--------------------------------------------------------------------|
A|--------------------------------------------------------------------|
E|--------------------------------------------------------------------|
lets bring this city to life


[Verse 2]

E|---------|-------------------------|
B|---------|-------------------------|
G|---------|-------------------------|
D|-8-8-7-0-|-0-2-3-5-3-2-3-3-2-1-1-0-| 
A|-6-6-5-0-|-0-2-3-5-1-0-3-1-0-1-1-0-| 
D|-------0-|-0-2-3-5-----3-----1-1-0-|


[Break]

E|--------------------------------------------------------------------------|
B|--------------------------------------------------------------------------|
G|--------------------------------------------------------------------------|
D|-2----2--5-5-9-------3-3-0-2-3----5-5-4----0--5-5-9----3-3-0-2-3----5-5-2-|
A|-2----0--3-3-7-------3-3-0-2-3----5-5-4----0--3-3-7----3-3-0-2-3----5-5-2-|
E|-2-------------------3-3-0-2-3----5-5-2----0-----------3-3-0-2-3----5-5-2-|


(outro from break)

Guitar 1                                                                   
E|------------------5-5---4-4------------|
B|-5-5-5--6-6-6-6--------------3-3-3-3-3-|
G|---------------------------------------|
D|---------------------------------------| x4
A|---------------------------------------|
E|---------------------------------------|
                                
E|------------------------------------|
B|-6-6-6---5-5-5-5--6-6-6/10-10-10-10-|
G|------------------------------------|
D|------------------------------------| x3
A|------------------------------------|
E|------------------------------------|
                                     
E|-----------------------------|
B|-6-6-6--5-5-5-5--6-6-6-6-6\3-|
G|-----------------------------|
D|-----------------------------|
A|-----------------------------|
E|-----------------------------|

Guitar 2
E|---------------------------------------------------------------|
B|---------------------------------------------------------------|
G|---------------------------------------------------------------|
D|-2----2----2---2-2-2-2-2-2-2-2-2-2-2-2-2-2----0----0----0----0-|
A|-2----2----2---2-2-2-2-2-2-2-2-2-2-2-2-2-2----0----0----0----0-|
E|-2----2----2---2-2-2-2-2-2-2-2-2-2-2-2-2-2----0----0----0----0-|
             palm mute
        
        
[Riff]

Guitar 1
E|---|---------|
B|---|---------|
G|---|---------|
D|-0-|-8-8-7-0-| 
A|-0-|-6-6-5-0-| 
D|-0-|-------0-|

Guitar 2
E|---------|
B|---------|
G|-5-5-5-7-| 
E|---------|
B|---------|
G|---------|


[Outro]

E|-------------------------|
B|-------------------------|
G|-------------------------|
D|-0-2-3-5-3-2-3-3-2-1-1-0-| 
A|-0-2-3-5-1-0-3-1-0-1-1-0-| 
D|-0-2-3-5-----3-----1-1-0-|
Outros vídeos desta música
    5 exibições
      • ½ Tom
      • A
      • Bb
      • B
      • C
      • Db
      • D
      • Eb
      • E
      • F
      • F#
      • G
      • Ab
    • Adicionar à lista

    Afinação da cifra

    Afinador online

      0 comentários

      Ver todos os comentários

      Entre para o Cifra Club PRO

      Tenha acesso a benefícios exclusivos no App e no Site

      • Chega de anúncios

      • Badges exclusivas

      • Mais recursos no app do Afinador

      • Atendimento Prioritário

      • Aumente seu limite de lista

      • Ajude a produzir mais conteúdo

      Cifra Club Pro

      Aproveite o Cifra Club com benefícios exclusivos e sem anúncios
      Cifra Club Pro
      Aproveite o Cifra Club com benefícios exclusivos e sem anúncios
      Ops (: Contenido disponible sólo en portugués.
      OK