Cifra Club

Wolf River

Reignwolf

Cifra: Principal (violão e guitarra)
Selo Cifra Club: esta cifra foi revisada para atender aos critérios oficiais da nossa Equipe de Qualidade.
tom: Dm
       Dm           A           F           G             
E|--5---------| --5-------- --1-------- --3--------|
B|-----6------| --5-------- --1-------- --3--------|
G|--------7---| -----6----- -----3----- -----4-----|
D|--------7---| --------7-- --------4-- --------5--|
A|--5---------| --------7-- --------4-- --------5--|
E|--5---------| --5-------- --1-------- --3--------|

Please feel free to comment below if something isn't right.


[Intro]

       Dm
E|-----------------------------------------|
B|-----------6-----------------6-----------|
G|--------7-----7-----------7-----7--------|
D|-----7-----------7-----7-----------7-----| X 2
A|--5-----------------5-----------------5--|
E|-----------------------------------------|


[Verse 1]


     Please, just make it stop
E|-----------------------------------------|
B|------------6-------------------5--------|
G|---------7-----7-------------6-----6-----|
D|------7-----------7-------7-----------7--|
A|---5-------------------------------------|
E|-----------------------5-----------------|

     The rhythm, the beat of your soul
E|-----------------------------------------|
B|------------5-----------------6----------|
G|---------6-----6-----------7-----7-------|
D|------7-----------7-----7-----------7----|
A|---------------------5-------------------|
E|---5-------------------------------------|

     The rest tears us apart
E|-----------------------------------------|
B|------------6----------------------------|
G|---------7-----7----------------6--------|
D|------7-----------7----------7-----7-----|
A|---5----------------------7-----------7--|
E|-----------------------5-----------------|

     I'm spinning out of control
E|-----------------------------------------|
B|--------------------------------6--------|
G|------------6----------------7-----------|
D|---------7-----7----------7--------------|
A|------7-----------7----5-----------------|
E|---5-------------------------------------|


[Chorus]

    You are breaaaaking      myyyyyy   heaaaaart...
E|-------------------------------------------------------------------|
B|-----------------------1---------------------6----------------6----|
G|------------------------------------------7-----7----------7-------|
D|--------------3-----3------------5-----7-----------7----7----------|
A|--5--7-----3-----3------------5------5----------------5------------|
E|---------1-----------------3---------------------------------------|

    And I  sweeaar I'm       droooow..niiing...
E|------------------------------------------------------------------------|
B|-----------------------1---------------------6----------------6---------|
G|------------------------------------------7-----7----------7------7-----|
D|--------------3-----3------------5-----7-----------7----7------------7--|
A|--5--7-----3-----3------------5------5----------------5-----------------|
E|---------1-----------------3--------------------------------------------|


[Outro]

     Oouuuhhh. . . .     Oouuuhhh. . . .
E|-----------------------------------------|
B|------------6-------------------5--------|
G|---------7-----7-------------6-----6-----|
D|------7-----------7-------7-----------7--|
A|---5-------------------------------------|
E|-----------------------5-----------------|

     Oouuuhhh. . . .   Oouuuhhh. . . .
E|-------------------------------5---------|
B|-------------------------------6---------|
G|------------6--------------7---7---------|
D|---------7--------------7------7---------|
A|------7--------7--8--5---------5---------|
E|---5---------------------------5---------|
Outros vídeos desta música
    520 exibições
      • ½ Tom
      • Am
      • Bbm
      • Bm
      • Cm
      • C#m
      • Dm
      • Ebm
      • Em
      • Fm
      • F#m
      • Gm
      • G#m
    • Adicionar à lista

    Afinação da cifra

    Afinador online

      0 comentários

      Ver todos os comentários

      Entre para o Cifra Club PRO

      Tenha acesso a benefícios exclusivos no App e no Site

      • Chega de anúncios

      • Badges exclusivas

      • Mais recursos no app do Afinador

      • Atendimento Prioritário

      • Aumente seu limite de lista

      • Ajude a produzir mais conteúdo

      Cifra Club Pro

      Aproveite o Cifra Club com benefícios exclusivos e sem anúncios
      Cifra Club Pro
      Aproveite o Cifra Club com benefícios exclusivos e sem anúncios
      Ops (: Contenido disponible sólo en portugués.
      OK