Cifra Club

Aprenda

Getting Into You

Relient K

Cifra: Principal (violão e guitarra)
tom: E
Intro:
E|----------------------------
B|----0-----0-----0-----------
G|-----1-----1-----1----------
D|---2-----2-----2------------
A|-------------0--------------
E|-0-----2-----------2--------

Verse:
E|----------------------------
B|----0-----0-----0----2------
G|-----1-----1-----1----2-1---
D|---2-----2-----2------------
A|-------------0--------------
E|-0-----2-----------2--------

When I made up my mind
And my heart along with that
To live not for myself
But yet for god
Somebody said
Do you know what you are getting yourself into?

When I finally ironed out
All of my priorities
And asked god to remove the doubt
That makes me so unsure of these
Things I ask myself
I ask myself
Do you know what you are getting yourself into?

E            B
I'm getting into you
               F#m
Because you got to me
                       A9
In a way words can't describe
E            B
I'm getting into you
              F#m
Because I've got to be
                A9
You're essential to survive

I'm going to love you with my life

Verso:
E|----------------------------
B|----0-----0-----0----2------
G|-----1-----1-----1----2-1---
D|---2-----2-----2------------
A|-------------0--------------
E|-0-----2-----------2--------
When he looked at me and said
"I kind of view you as a son"
And for a second our eyes met
And I met that with a question
"do you know what you are getting yourself into?"

E            B
I'm getting into you
               F#m
Because you got to me
                               A9
In a way words can't describe
E            B
I'm getting into you
              F#m
Because I've got to be
                A9
You're essential to survive

I'm going to love you with my life

Guitarra 1:
E|------------------------------------------------------------
B|------------------------------------------------------------
G|---9----8----6----1----9----8----6----1----9----8----6---1--
D|----9----9----6----2----9----9----7----2----9----9----7--2--
A|--7----9----7----2----7----9----7----2----7----9----7----2--
E|-9----7----5----0----9----7----5----0----9----7----5-----0--
I've been a liar and I'll never amount to
The kind of person you deserve to worship you
You say you will not dwell on what I did
But rather what I do you say
"I love you and that's what you are getting yourself into"

Verse:
E|----------------------------
B|----0-----0-----0----2------
G|-----1-----1-----1----2-1---
D|---2-----2-----2------------
A|-------------0--------------
E|-0-----2-----------2--------
You said "I love you and that's what you are getting yourself into"
Composição de Matthew Thiessen
Colaboração e revisão:
  • Rebeca Costa
  • Vinicius D'Andrade
12.840 exibições
    • ½ Tom
    • A
    • Bb
    • B
    • C
    • Db
    • D
    • Eb
    • E
    • F
    • F#
    • G
    • Ab
  • Adicionar à lista

    0 comentários

    Ver todos os comentários
    00:00 / 00:00
    outros vídeos desta música
    repetir qualidade Automático
    Outros vídeos desta música
    00:00 / 00:00
    Automático

    Cifra Club Pro

    Aproveite o Cifra Club com benefícios exclusivos e sem anúncios
    Cifra Club Pro
    Aproveite o Cifra Club com benefícios exclusivos e sem anúncios
    OK