Cifra Club

Aprenda

I am Understood

Relient K

Cifra: Principal (violão e guitarra)
tom: F#
Acoustic Intro:

        Play multiple times
     B           D     A
e ---2-----2-----2-----0----
b ---3-----3-----3-----2----
g ---4-----4-----2-----2----
d ---4-----4-----0-----2----
a ---2-----0-----------0----
E ---2----------------------


Electric Verse: 4x each

e ---------------------
b ---------------------
g -------------7-------
d ---9----5----7----7--
a ---9----5----5----7--
E ---7----3---------5--

Chorus: Rhythm 

play multiple times

e -------------------
b -------------------
g ---7---------------
a ---7---5---9------- go to chorus:both
d ---5---5---9-------
E -------3---7-------

Chorus: lead

e ---------------------------------------------------------
b ---------------------------------------------------------
g ---7-7-7-7-7-7---12/11---4-4-4-4-4-4---12/11--7----------
d -------------------------------------------------(x12)--- go to chorus:both
a ---5-5-5-5-5-5---10/9----2-2-2-2-2-2---10/9---5----------
E ---------------------------------------------------------

Chorus: both

e ------------------------------------------
b --------------------------2nd time only---
g ------------------------------/--\--------
d ---xxxx--5----5--xxxx--7--7--|xxxx|------- Repeat rhythm and lead
a ---xxxx--5----5--xxxx--7--7--|xxxx|-------
E ---xxxx--2/3--3--xxxx--5--5--|xxxx|-------

e --------------------------------------
b --------------------------------------
g ---7-7-7-7--x-x-x---7-7-7-7--x-x-x----
d ---7-7-7-7--x-x-x---7-7-7-7--x-x-x----
a ---5-5-5-5--x-x-x---5-5-5-5--x-x-x----
E --------------------------------------

Play verse again
then bridge

Bridge: acoustic                     end 3rd time
                                        |
e --------------------------------------|--------------------------
b --------------------------------------|--------------------------
g ---------0------0------0------0-------0------0----------0--------
d -------4------4------4------4-------4------4--------4-----4------ repeat
a -----2------2------2------2-------2------2--------2---------2---- 2(1/2)
E --0-----------------------------0---------------0----------------  times

Bridge: electric (MUTE EVERYTHING EXCEPT 5th fret on D String)

e ------------------------------------|---------------------------------
b ------------------------------------|----------------------------------
g ------------------------------------|----------------------------------
d -------5-----5-5-5------5-----5-5-5-|----5-----5-5-5--4-4-5-4-4-4-5-4--
a ------------------------------------|-5-5--5-5-------------------------
E ---7-7---7-7--------3-3---3-3-------|----------------------------------

e --|--------------------------
b --|--------------------------
g --|--------------------------
d --|--7-7-5-7-7-5-7-5---------
a --|--------------------------
E --|--------------------------

2nd verse: lead

e -----------------------------------------------------------
b -----------------------------------------------------------
g ----------------------------------------12-12-12-12-12/11--
d --7-7-7-7-7---5-5-5-5-5-5---7-7-7-7-7---------------------- repeat twice
a --7-7-7-7-7---5-5-5-5-5-5---7-7-7-7-7---10-10-10-10-10/9---
E --5-5-5-5-5---2-2-2-3-3-3---5-5-5-5-5----------------------

3rd verse: Rhythm

play each chord many times

e -----------------------
b -----------------------
g --------7--------------
d --9--5--7--7-----------  repeat 2 times
a --9--5--5--7-----------
E --7--3-----5-----------

break: acoustic

e ------------------------------
b ------------------------------
g -------0-----0-----0----0-----
d -----4-----4-----5-----4------
a ---2-----2-----3-----2--------
E ------------------------------

Repeat verse:

End of verse lead

e ---------------
b ---------------
g ---14/6--7--9--
d ---------------
a ---12/4--5--7--
E ---------------

ENDING: lead

e -------------------
b -------------------
g --7-7-7-7--x-x-x---
d -------------------
a --5-5-5-5--x-x-x---
E -------------------


ENDING: rhythm

e ----------------------------------------------------------------
b ----------------------------------------------------------------
g ---7-7-7-7-x-x-x------------------------------------------------
d ---7-7-7-7-x-x-x--7-7-7-7-x-x-x--8-8-8-8-x-x-x--5-5-5-5-x-x-x--- play
a ---5-5-5-5-x-x-x--7-7-7-7-x-x-x--8-8-8-8-x-x-x--5-5-5-5-x-x-x--- many
E ------------------5-5-5-5-x-x-x--6-6-6-6-x-x-x--3-3-3-3-x-x-x--- times

Rhythm: at 3:50 play this (8 times each octave)

e ---------------------
b ---------------------
g --7---14---15---14---
d ---------------------
a --5---12---13---12---
E ---------------------


VERY END:

e ---------------
b ---------------
g -------9-------
d ---0-/---/-0---
a ---5---7---9---
E ---------------
Composição de Matthew Thiessen
Colaboração e revisão:
  • Gabriel Richard
1.269 exibições
    • ½ Tom
    • A
    • Bb
    • B
    • C
    • Db
    • D
    • Eb
    • E
    • F
    • F#
    • G
    • Ab
  • Adicionar à lista

    0 comentários

    Ver todos os comentários
    00:00 / 00:00
    outros vídeos desta música
    repetir qualidade Automático
    Outros vídeos desta música
    00:00 / 00:00
    Automático

    Cifra Club Pro

    Aproveite o Cifra Club com benefícios exclusivos e sem anúncios
    Cifra Club Pro
    Aproveite o Cifra Club com benefícios exclusivos e sem anúncios
    OK