Cifra Club

Pressing On

Relient K

Cifra: Principal (violão e guitarra)
Selo Cifra Club: esta cifra foi revisada para atender aos critérios oficiais da nossa Equipe de Qualidade.
tom: Ab
Relient K - Pressing on

afinação ->(E A D G B E)

intro (guitarra1) toca 1x aí entra com a guitarra2 
E|--------------------------------------------------||
B|--------------------------------------------------||
G|--------------------------------------------------||
D|-6---3h4-------------------------------3-1--------||     x4
A|-4---------6-6---8-6---8---8h9---4-4--------------||
E|-----------4-4---------6---------2-2--------------||

guitarra2
E|--------------------------------------------------||
B|--------------------------------------------------||
G|--------------------------------------------------||
D|-6-6-6-6-6----------------------------------------||         x3
A|-4-4-4-4-4--6-6-6-6-6--8-8-8-8-8--4-4-4-4-4-------||
E|------------4-4-4-4-4--6-6-6-6-6--2-2-2-2-2-------||

verso (parte1)
E|--------------------------------------------------------||
B|--------------------------------------------------------||
G|--------------------------------------------------------||            x3
D|-6-x-x-x-x-x-5-x-x-x-x-x-3-x-x-x-x-x--------------------||
A|-4-x-x-x-x-x-3-x-x-x-x-x-1-x-x-x-x-x-3-x-x-x-x-x--------||
E|-------------------------------------1-x-x-x-x-x--------||

verso (parte2)
E|--------------------------------------------------------||
B|--------------------------------------------------------||
G|--------------------------------------------------------||        x1
D|-6--6--6---5--5--5---3--3--3----------------------------||
A|-4--4--4---3--3--3---1--1--1---3--3--3------------------||
E|-------------------------------1--1--1------------------||

pre-chorus (parte1)
E|--------------------------------------------------------||
B|--------------------------------------------------------||
G|---------------7h9-9-7h9-9-9----------------------------||    x1
D|-7h9-9-7h9-9-9-5h7-7-5h7-7-7----------------------------||
A|-5h7-7-5h7-7-7------------------------------------------||
E|--------------------------------------------------------||

pre-chorus (parte2)
E|-------------------------------------||
B|-------------------------------------||
G|-------------------------------------||      x1
D|-6-6-6-6-6-6-6-6---------------------||
A|-4-4-4-4-4-4-4-4-6-6-6-6-6-6-6-6-----||
E|-----------------4-4-4-4-4-4-4-4-----||

(pre-chorus parte 1)

pre-chorus (parte3)
E|------------------||
B|------------------||
G|------------------||    x1
D|-5-5-7-9----------||
A|------------------||
E|------------------||

pre-chorus (parte 4)
E|-------------------------------------------------------x-x-x-x-----------||
B|-------------------------------------------------------x-x-x-x-----------||
G|-------------------------------------------------------x-x-x-x-----------||    x1
D|-6-6-6-6-6-6-6-6---------------------------------------x-x-x-x-----------||
A|-4-4-4-4-4-4-4-4---6-6-6-6-6-6-6-6---8-8-8-8-8-8-8-8---x-x-x-x-----------||
E|-------------------4-4-4-4-4-4-4-4---6-6-6-6-6-6-6-6---x-x-x-x-----------||

coro
E|--------------------------------------------------||
B|--------------------------------------------------||
G|--------------------------------------------------||
D|-6-6-6-6-6----------------------------------------||         x3
A|-4-4-4-4-4--6-6-6-6-6--8-8-8-8-8--4-4-4-4-4-------||
E|------------4-4-4-4-4--6-6-6-6-6--2-2-2-2-2-------||

depois do coro
E|---------------------------------------||
B|---------------------------------------||
G|---------------------------------------||
D|---------------6-6-6-6-6-6-6-6---------||
A|-6-6-6-6-6-6-6-4-4-4-4-4-4-4-4---------||
E|-4-4-4-4-4-4-4-------------------------||
(verso parte1)
(verso parte2)
(pre-chorus parte1)
(pre-chorus parte2)
(pre-chorus parte1)
(pre-chorus parte3)
(pre-chorus parte4)
(coro)
(depois do coro)
(intro guitarra2+1)
(intro)
(depois do coro)
(coro)
(depois do coro)

Bridge
E|-------------------------------------||
B|-6-6-6-6-5-5-5-5-7-7-7-7-8-8-8-8-----||
G|--6-6-6-6-5-5-5-5-7-7-7-7-7-7-7-7----||    x4
D|-------------------------------------||
A|-------------------------------------||
E|-------------------------------------||

finalizando
E|------------------||
B|------------------||
G|------------------||
D|-6--------6-------||
A|-4---6----4-------||
E|-----4------------||

--------------------------------------


[-----------------------------]
[-----------------------------]
[-----------------------------]
[---3h4-----3-1---3h4-----3-1-]
[-4---------------------------]
[-------4-4-----6-----2-2-----]
  C#    G#      A#    F#

 C#            C#/C
 I think we're going somewhere,
 A#          F#
 We're on to something good here,
 C#     C#/C         A#
 Out of mind, Out of state,
           F#
 Trying to keep my head on straight,
 C#          C#/C
 I think we're going somewhere,
 A#          F#
 We're on to something good here,
 C#           C#/C              A#
 There's only one thing left to do,
            F#
 Drop all i have and go with you..

Riff1
 [------------------------------]
 [------------------------------]
 [-6-8-8--6-8-8--8-1111--8-1111-]
 [-6-8-8--6-8-8--8-1111--8-1111-]
 [-4/6-6--4/6-6--6/9-9---6/9-9--]
 [------------------------------]
 Somewhere back there,
 I left my worries all behind,
 C#               G#                   [Riff1]
 My problems fell outta the back of my mind,

 We're going and I'm never knowing,
 C#            G#
 Never knowing where we're going,
    F#                                   G#
 To go back to where i was would just be wrong,
              C#
 I'm pressing on..

 C#       G#      A#               F#           C#
 Pressing on, Our mighty stress is going, going gone,
          G#           A#   F#
 Pressing on, Pressing on,
       C#        G#       A#           F#
 And i wont take back and take this anymore,
           C#        G#
 'Cause im done with that,
       A#               F#
 I got one foot out the door,
        F#                                   G#
 And to go back to where I was would just be wrong,
              C#
 I'm pressing on..

 (Repete)

 C#  G#  A#  F# (2x)

 (Intro 4x)
 (va pra as 2 ultimas linhas do prechorus)
 (Coro)

You looked at me but you don't look down on me at all,
You smile and laugh I feel the love you have for me,
I think we're going somewhere,
And we're on to something good here,
     F#          G#            C#
 And we're gonna make it after all..

E|-------------------------------------------------------------|
B|-------------------------------------------------------------|
G|-6666666666658886-66656665666566666665666566658885-----6~----|
D|---------------------------------------------------4-6-6~----|
A|---------------------------------------------------4-6-4~----|
E|---------------------------------------------------2-4-------|
Outros vídeos desta música
    6.612 exibições
      • ½ Tom
      • A
      • Bb
      • B
      • C
      • Db
      • D
      • Eb
      • E
      • F
      • F#
      • G
      • Ab
    • Adicionar à lista

    Afinação da cifra

    Afinador online

      0 comentários

      Ver todos os comentários

      Conseguiu tocar?

      0Tocaram0Ainda não

      Grave um vídeo tocando Pressing On e nos envie!

      Toque também

      1. Imagem do artista SwitchfootDare You To Move Switchfoot
      2. Imagem do artista Sanctus RealConfidence Sanctus Real
      3. Imagem do artista House Of HeroesGod Save The Foolish Kings House Of Heroes
      4. Imagem do artista Stellar KartMe And Jesus Stellar Kart

      Entre para o Cifra Club PRO

      Tenha acesso a benefícios exclusivos no App e no Site

      • Chega de anúncios

      • Badges exclusivas

      • Mais recursos no app do Afinador

      • Atendimento Prioritário

      • Aumente seu limite de lista

      • Ajude a produzir mais conteúdo

      Cifra Club Pro

      Aproveite o Cifra Club com benefícios exclusivos e sem anúncios
      Cifra Club Pro
      Aproveite o Cifra Club com benefícios exclusivos e sem anúncios
      Ops (: Contenido disponible sólo en portugués.
      OK