Cifra Club

Aprenda

When I Go Down

Relient K

Cifra: Principal (violão e guitarra)
tom: D
(Intro)
|----------------------------------------------------------------------|
|----------------------------------------------------------------------|
|-----4-----4-----4-----4-----4------------4-----4-----4-----4-----4---|
|---2-----2-----2-----2-----2---2--------2-----2-----2-----2-----2---2-|
|-4-----4-----4-----4-----4-----------0------0-----0-----0-----0-------|
|----------------------------------------------------------------------|

|--------------------------------------------------------------------|
|--------------------------------------------------------------------|
|-----4-----4-----4-----4-----4----------4-----4-----4-----4-----4---|
|---2-----2-----2-----2-----2---2------2-----2-----2-----2-----2---2-|
|-4-----4-----4-----4-----4------------------------------------------|
|------------------------------------0-----0-----0-----0-----0-------|

(Verse 1)
|-------------------------------------------------------------------|
|-------------------------------------------------------------------|
|-------4-----4-----4-----4-----4-------4-----4-----4-----4-----4---|
|-----2-----2-----2-----2-----2-------2-----2-----2-----2-----2---2-|
|---4-----4-----4-----4-----4-------0-----0-----0-----0-----0-------|
|-------------------------------------------------------------------|

|---------------------------------------------------------------------|
|---------------------------------------------------------------------|
|-----4-----4-----4-----4-----4-----------4-----4-----4-----4-----4---| (2x)
|---2-----2-----2-----2-----2---2-------2-----2-----2-----2-----2---2-|
|-4-----4-----4-----4-----4----------0------0-----0-----0-----0-------|
|---------------------------------------------------------------------|

(Pre-Chorus)
|------------------------------------|
|------------------------------------|
|-------2-----2----------4-----4-----| (4x)
|-----0-----0-----0----0-----0-----0-|
|------------------------------------|
|---2-----2-----2----3-----3-----3---|

|------------------------------------------------|
|------------------------------------------------|
|-------1~---------------------------------------|
|-------2~--------2-2-2-2-2--5-5-5-5-5-5-5-5--7~-|
|-------2~--------2-2-2-2-2--5-5-5-5-5-5-5-5--7~-|
|---0-0-0~--------0-0-0-0-0--3-3-3-3-3-3-3-3--5~-|

(Chorus)
D Bm G Asus A
D Bm G Asus A

(Fill 1)
|----------------------------------------------------------------------|
|----------------------------------------------------------------------|
|-----4-----4-----4-----4-----4------------4-----4-----4-----4-----4---|
|---2-----2-----2-----2-----2---2--------2-----2-----2-----2-----2---2-|
|-4-----4-----4-----4-----4-----------0------0-----0-----0-----0-------|
|----------------------------------------------------------------------|

|-------------------------------------|
|-------------------------------------|
|-----4-----4-----4-----4-----4-------|
|---2-----2-----2-----2-----2---2--2~-|
|-4-----4-----4-----4-----4--------2~-|
|----------------------------------0~-|

(Verse 2)
|-0-0-0-0-0--0-0-0-0-0-0-0--0-0-0--0-0-0-0-0--0-0-0-0-0-0-0--0-0-0-|
|-0-0-0-0-0--0-0-0-0-0-0-0--0-0-0--0-0-0-0-0--0-0-0-0-0-0-0--0-0-0-|
|-4-4-4-4-4--4-4-4-4-4-4-4--4-4-4--4-4-4-4-4--4-4-4-4-4-4-4--4-4-4-| (4x)
|-2-2-2-2-2--2-2-2-2-2-2-2--2-2-2--2-2-2-2-2--2-2-2-2-2-2-2--2-2-2-|
|-4-4-4-4-4--4-4-4-4-4-4-4--4-4-4--0-0-0-0-0--0-0-0-0-0-0-0--0-0-0-|
|------------------------------------------------------------------|

(Pre-Chorus 2)
|-------------------------------------|
|-------------------------------------|
|-------2-----2----------4-----4------| (8x)
|-----0-----0-----0----0-----0-----0--|
|-------------------------------------|
|---2-----2-----2----3-----3-----3----|

|---0~------------------------------|
|---0~------------------------------|
|---1~------------------------------|
|---2~--------5-5-5-5-5-5-5-5--7~---|
|---2~--------5-5-5-5-5-5-5-5--7~---|
|---0~--------3-3-3-3-3-3-3-3--5~---|

(Chorus 2)
|------------------------------------------------------------------|
|------------------------------------------------------------------|
|-7-7-7-7-7-7-7-7-7-7-7-7-7-7-7-7--4-4-4-4-4-4-4-4-4-4-4-4-4-4-4-4-|
|-7-7-7-7-7-7-7-7-7-7-7-7-7-7-7-7--4-4-4-4-4-4-4-4-4-4-4-4-4-4-4-4-|
|-5-5-5-5-5-5-5-5-5-5-5-5-5-5-5-5--2-2-2-2-2-2-2-2-2-2-2-2-2-2-2-2-|
|------------------------------------------------------------------|

|------------------------------------------------------------------|
|------------------------------------------------------------------|
|------------------------------------------------------------------| (2x)
|-5-5-5-5-5-5-5-5-5-5-5-5-5-5-5-5--7-7-7-7-7-7-7-7-7-7-7-7-7-7-7-7-|
|-5-5-5-5-5-5-5-5-5-5-5-5-5-5-5-5--7-7-7-7-7-7-7-7-7-7-7-7-7-7-7-7-|
|-3-3-3-3-3-3-3-3-3-3-3-3-3-3-3-3--5-5-5-5-5-5-5-5-5-5-5-5-5-5-5-5-|

(Bridge-Part 1)
[Guitar 1]
D G F#
D G F#
Em Asus A

(Bridge-Part 2)
[Guitar 1]
G D  <---
        |
        |
**Alternate back and forth between these two chords**

[Guitar 2]
|---------------------------------------|
|-----<7>---------------<7>-------------|
|-<5>-----<7>-------<5>-----<7>---------|
|-------------<7>---------------<12>----|
|---------------------------------------|
|---------------------------------------|

|---------------------------------------|
|-----<7>---------------<7>-------------|
|-<5>-----<7>-------<5>-----<7>---------| (7x)
|-------------<7>-----------------------|
|---------------------------------------|
|---------------------------------------|

(Fill 2)
|------------------------------------|
|------------------------------------|
|---7-7-7-7--------------------------| (2x)
|---7-7-7-7--5-5/7-7-7-7-/9\4-4/5~---|
|---5-5-5-5--5-5/7-7-7-7-/9\4-4/5~---|
|------------3-3/5-5-5-5-/7\2-2/3~---|

(Chorus 3)
D Bm G A

(Outro-Part 1)
[Guitar 1]
|----------------------------------------------------------------------|
|----------------------------------------------------------------------|
|-----4-----4-----4-----4-----4------------4-----4-----4-----4-----4---| (2x)
|---2-----2-----2-----2-----2---2--------2-----2-----2-----2-----2---2-|
|-4-----4-----4-----4-----4-----------0------0-----0-----0-----0-------|
|----------------------------------------------------------------------|

(Riff 1)
[Guitar 2]
|---------------|
|---------------|
|-9-8-----------|
|-----9-9/11~~~-|
|---------------|
|---------------|

(Outro-Part 2)
|-------------------------|
|-------------------------|
|-------2-----2------4~~~-|
|-----0-----0-----0--0~~~-|
|--------------------0~~~-|
|---2-----2-----2----3~~~-|
Composição de Matthew Thiessen
Colaboração e revisão:
  • Gabriel Richard
3.735 exibições
    • ½ Tom
    • A
    • Bb
    • B
    • C
    • Db
    • D
    • Eb
    • E
    • F
    • F#
    • G
    • Ab
  • Adicionar à lista

    0 comentários

    Ver todos os comentários
    00:00 / 00:00
    outros vídeos desta música
    repetir qualidade Automático
    Outros vídeos desta música
    00:00 / 00:00
    Automático

    Cifra Club Pro

    Aproveite o Cifra Club com benefícios exclusivos e sem anúncios
    Cifra Club Pro
    Aproveite o Cifra Club com benefícios exclusivos e sem anúncios
    OK