Cifra Club

Aprenda

Everybody Hurts

R.E.M.

Cifra: Principal (violão e guitarra)
Tom: G
[Intro]

   D                        G
E|-------2-----------2----|-------3-----------3----|
B|-----3---3-------3---3--|-----3---3-------3---3--|
G|---2-------2---2-------2|---0-------0---0-------0| (x2)
D|-0-----------0----------|------------------------|
A|------------------------|------------------------|
E|------------------------|-3-----------3----------|

[Primeira Parte]

   D                        G
E|-------2-----------2----|-------3-----------3----|
B|-----3---3-------3---3--|-----3---3-------3---3--|
G|---2-------2---2-------2|---0-------0---0-------0| (x3)
D|-0-----------0----------|------------------------|
A|------------------------|------------------------|
E|------------------------|-3-----------3----------|

   D                        G                 G5/F#
E|-------2-----------2----|-------3----------------|
B|-----3---3-------3---3--|-----3---3-------3-----3|
G|---2-------2---2-------2|---0-------0---0-----0--|
D|-0-----------0----------|------------------------|
A|------------------------|------------------------|
E|------------------------|-3-----------3-----2----|

D                      G          D
  When your day is long and the night
                     G    D 
The night is yours alone
                              G             D
When you`re sure you`ve had enough of this life
          G   G5/F#
Well hang on

[Pré-Refrão]

   Em                        A
E|-------0-----------0----|-------0-----------0----|
B|-----0---0-------0---0--|-----2---2-------2------|
G|---0-------0---0-------0|---2-------2---2--------| (x2)
D|------------------------|------------------------|
A|------------------------|-0-----------0----------|
E|-0-----------0----------|---------------------3-2|

   Em                        A
E|-------0-----------0----|-------0-----0----------|
B|-----0---0-------0---0--|-----2---2--------------|
G|---0-------0---0-------0|---2-------2------------|
D|------------------------|------------------------|
A|------------------------|-0----------------------|
E|-0-----------0----------|------------------------|

   D                        G
E|-------2-----------2----|-------3-----------3----|
B|-----3---3-------3---3--|-----3---3-------3---3--|
G|---2-------2---2-------2|---0-------0---0-------0| (x5)
D|-0-----------0----------|------------------------|
A|------------------------|------------------------|
E|------------------------|-3-----------3----------|

   D                        G                 G5/F#
E|-------2-----------2----|-------3----------------|
B|-----3---3-------3---3--|-----3---3-------3-----3|
G|---2-------2---2-------2|---0-------0---0-----0--|
D|-0-----------0----------|------------------------|
A|------------------------|------------------------|
E|------------------------|-3-----------3-----2----|

Em                    A     Em
   Don`t let yourself go
                 A     Em
Cause everybody cries
              A   
And everybody hurts

    D      G
Sometimes
                          D     G
Sometimes everything is wrong
                        D
Now it`s time to sing along
                         G      D
When your day is night alone
(hold on, hold on)
                          G     D
If you feel like letting go
(hold on)
                             G            D
If you think you`ve had too much of this life
          G  G5/F#
Well hang on

[Refrão]

Em                  A     G  G/F#  Em   
   Cause everybody hurts
                       A     G  G/F#  Em
Take comfort in your friends
           A
Everybody hurts

[Ponte]

F#                   Bm  F#
   Don`t throw your hand
      Bm  F#                   Bm  C
Whoa now    don`t throw your hand
                          G   C               C/B   Am  
If you feel like you`re alone no no no you`re not alone

[Segunda Parte]

   D                        G
E|-------2-----------2----|-------3-----------3----|
B|-----3---3-------3---3--|-----3---3-------3---3--|
G|---2-------2---2-------2|---0-------0---0-------0| (x3)
D|-0-----------0----------|------------------------|
A|------------------------|------------------------|
E|------------------------|-3-----------3----------|

   D                        G                 G5/F#
E|-------2-----------2----|-------3----------------|
B|-----3---3-------3---3--|-----3---3-------3-----3|
G|---2-------2---2-------2|---0-------0---0-----0--|
D|-0-----------0----------|------------------------|
A|------------------------|------------------------|
E|------------------------|-3-----------3-----2----|

D                   G            D
  If you`re on your own in this life
                         G   D
The days and nights are long
                             G              D
When you think you`ve had too much of this life
        G  G5/F# 
To hang on

[Refrão]

   Em                        A
E|-------0-----------0----|-------0-----------0----|
B|-----0---0-------0---0--|-----2---2-------2------|
G|---0-------0---0-------0|---2-------2---2--------| (x2)
D|------------------------|------------------------|
A|------------------------|-0-----------0----------|
E|-0-----------0----------|---------------------3-2|

   Em                        A
E|-------0-----------0----|-------0-----0----------|
B|-----0---0-------0---0--|-----2---2--------------|
G|---0-------0---0-------0|---2-------2------------|
D|------------------------|------------------------|
A|------------------------|-0----------------------|
E|-0-----------0----------|------------------------|

   D                        G
E|-------2-----------2----|-------3-----------3----|
B|-----3---3-------3---3--|-----3---3-------3---3--|
G|---2-------2---2-------2|---0-------0---0-------0| (x11)
D|-0-----------0----------|------------------------|
A|------------------------|------------------------|
E|------------------------|-3-----------3----------|

Em                 A        Em
   Well everybody hurts sometimes
          A       Em
Everybody cries
              A     
And everybody hurts
    D      G  
Sometimes

              D         G
But everybody hurts sometimes
    D       G       D       G
So hold on hold on hold on hold on
 D       G       D       G
Hold on hold on hold on hold on
          D     G   D   G
Everybody hurts
              D   G   D   G   D   G
You are not alone
Composição de Bill Berry / Michael Stipe / Mike Mills / Peter Buck
Colaboração e revisão:
250.763 exibições
    • ½ Tom
    • A
    • Bb
    • B
    • C
    • Db
    • D
    • Eb
    • E
    • F
    • F#
    • G
    • Ab
  • Adicionar à lista

    0 comentários

    Mostrar mais comentários

    Conseguiu tocar?

    72 Tocaram 5 Ainda não

    Grave um vídeo tocando Everybody Hurts e mande pra gente!

    00:00 / 00:00
    outros vídeos desta música
    repetir qualidade Automático
    Outros vídeos desta música
    00:00 / 00:00
    Automático

    Cifra Club Pro

    Aproveite o Cifra Club com benefícios exclusivos e sem anúncios
    7 dias grátis
    Cifra Club Pro
    Aproveite o Cifra Club com benefícios exclusivos e sem anúncios
    7 dias grátis
    OK