Cifra Club

Aprenda

Überlin

R.E.M.

Cifra: Principal (violão e guitarra)
tom: Bb (forma dos acordes no tom de G) Capotraste na 3ª casa
Intro:
E|---------------|
B|-0-------------|
G|----2--0-------|
D|----------3----|
A|---------------|
E|---------------|

Verso:
    Em       G                    Bm       D
    Hey now, take your pills, and hey now, make your breakfast
E|-----------3----------------------------2-------------------|
B|-----------0----------------------------3-------------------|
G|----0------0---------------------4------2-------------------|
D|------4----0-----------------------4--0-0-------------------|
A|--------2--2-------------------2----------------------------|
E|-0---------3------------------------------------------------|

    Em       G                  D
    Hey now, comb your hair and off to work
E|-----------3------------------------------------------------|
B|-----------0--------------------3-----3-----3---------------|
G|----0------0----------------------2-----2-----2---2---------|
D|------4----0------------------0-----0-----0-----0-----------|
A|--------2--2------------------------------------------------|
E|-0---------3------------------------------------------------|

   Em         G              Bm          D
   Crash land, no illusions; no collision, no intrusion
E|-----------3--------------------------2---------------------|
B|-----------0--------------------------3---------------------|
G|----0------0------------------4-------2---------------------|
D|------4----0--------------------4---0-0---------------------|
A|--------2--2---------------2--------------------------------|
E|-0---------3------------------------------------------------|

    Em        G          D
    My  i_____magination runs away
E|-----------3------------------------------------------------|
B|-----------0-------------3-----3-----3----------------------|
G|----0------0---------------2-----2-----2---2----------------|
D|------4----0-----------0-----0-----0-----0------------------|
A|--------2--2------------------------------------------------|
E|-0---------3------------------------------------------------|

Riff:
E|--------------|
B|--------------|
G|-4-4-2--0-----|
D|-----------3--|
A|--------------|
E|--------------|

Em       G
Hey now, take your pills, and
Bm       D
Hey now, make your breakfast
Em       G                  D
Hey now, comb your hair and off to work.
Em         G
Crash land, no illusions;
Bm             D
no collision, no intrusion
Em    G         D
My imagination runs away.

   C                             Bm
I know, I know, I know what I am chasing
   C                                 D
I know, I know, I know that this is changing me

C       Em        G             D        C
I am flying on a star into a meteor tonight,
        Em        Bm
I am flying on a star, star, star
C       Em                  G               D
I will make it through the day and then the day
             C
becomes the night
        Em                  Bm    (riff)
I will make it through the night.

Em       G
Hey now, take the U-Bahn
Bm       D
5 stops, change the station,
Em       G                  D
Hey now, don't forget that change will save you
Em       G
Hey now, count a thousand,
Bm              D
million people that's astounding
Em                  G                D
Chasing through the city with their stars on bright.

  C                              Bm
I know, I know, I know what I am chasing
   C                                 D
I know, I know, I know that this is changing me

C       Em        G             D        C
I am flying on a star into a meteor tonight,
        Em        Bm
I am flying on a star, star, star
C       Em                  G               D
I will make it through the day and then the day
             C
becomes the night
        Em                  Bm
I will make it through the night.

Solo: Bb  F  C  G  Bb  F  C  G

Em       G
I don't mind repeating
Bm    D
I am not complete,
Em     G               D
I have never been the gifted type
Em       G
Hey man, tell me something
Bm       D
are you off to somewhere?
Em       G                D
Do you... want to go with me tonight?

  C                                 Bm
I know, I know, I know that this is changing;
   C
We walk the streets to feel the ground
        D
I'm chasing: ÜBerlin

C       Em        G             D        C
I am flying on a star into a meteor tonight,
        Em        Bm
I am flying on a star, star, star
C       Em                  G               D
I will make it through the day and then the day
             C
becomes the night
        Em                  Bm   (Riff) Em
I will make it through the night.
Composição de Michael Stipe / Peter Buck
Colaboração e revisão:
  • Rafael Santos
5.840 exibições
    • ½ Tom
    • A
    • Bb
    • B
    • C
    • Db
    • D
    • Eb
    • E
    • F
    • F#
    • G
    • Ab
  • Adicionar à lista

    0 comentários

    Ver todos os comentários

    Conseguiu tocar?

    2 Tocaram 0 Ainda não

    Grave um vídeo tocando Überlin e nos envie!

    00:00 / 00:00
    Outros vídeos desta música
    Repetir Qualidade Automático
    Outros vídeos desta música
    00:00 / 00:00
    Automático

    Cifra Club Pro

    Aproveite o Cifra Club com benefícios exclusivos e sem anúncios
    Cifra Club Pro
    Aproveite o Cifra Club com benefícios exclusivos e sem anúncios
    OK