Cifra Club

Canudinho

Renata Arruda

Cifra: Principal (violão e guitarra)
tom: A
|--------------------------------------------------|
|----8-------10-8----------------------------------|
|--9---9--9-------9-7-----7(9)-7(9)----------------|
|------------------------9-7-------9-7-10---5------|
|---------------------------------------------7-7~~|
|--------------------------------------------------|

A
Se eu tivesse um canudinho
              E
Eu chupava você
                      D        E
Pra dentro do meu mundinho
              A
Pra comigo viver
              E
Pra comigo viver
                      A
Se eu tivesse um canudinho
                   E
Eu me enchia de você

E acabava com o vazio
              A
O vazio de viver
D 
Se eu pudesse te liquefazer
         A             G#     F#m
Eu te bebia até ficar de.... porre
B
Você me embebeda, você me enlouquece
E
Ai meu Deus como é que você pode
                      A
Se eu tivesse um canudinho
              E
Eu chupava você
                      D          E
Pra dentro do meu mundinho
              A
Pra comigo viver
              E
Pra comigo viver
                      A
Se eu tivesse um canudinho
                   E
Eu me enchia de você

E acabava com o vazio
              A
O vazio de te ver
               D
Se eu pudesse te liquefazer
        A              G#    F#m
Eu te bebia até ficar de.... porre
  B
Você me embebeda, você me enlouquece
E
Ai meu Deus como é que você pode



Solo
|----------------------------------5h-------5h---|
|-18(19)-18(19)-18(19)-13--------5--------5------|
|-18(19)-18(19)-18(19)----14-5/7------5/7--------|
|------------------------------------------------|
|------------------------------------------------|
|------------------------------------------------|

|------5h-4^5^4----------------------------------|
|----5----------7-5-----------------5h-----------|
|5/7----------------9(10)-7^9^7---7----7^9^7---7-|
|-------------------------------9------------9---|
|------------------------------------------------|
|------------------------------------------------|

|------------------------------------------------|
|-15/17-17-17-17-15/17-17-17-17-17----15-18-17-15|
|----------------------------------16------------|
|------------------------------------------------|
|------------------------------------------------|
|------------------------------------------------|

|-------------------------------|
|----15-18-17-15----15----------|
|-16-------------16----16-14~~~~|
|-------------------------------|
|-------------------------------|
|-------------------------------|

         D
Se eu pudesse te liquefazer
        A             G#     F#m
Eu te bebia até ficar de.... porre
B
Você me embebeda, você me enlouquece
E
Ai meu Deus como é que você pode
D
Você me embebeda, você me enlouquece
E
Ai meu Deus como é que você pode
                     A
E eu tivesse um canudinho
00:00 / 00:00
Outros vídeos desta música
Repetir
Outros vídeos desta música
Composição de Renata Arruda
Colaboração e revisão:
  • Lucca Gurgel
  • Eduardo Messias
72.371 exibições
    • ½ Tom
    • A
    • Bb
    • B
    • C
    • Db
    • D
    • Eb
    • E
    • F
    • F#
    • G
    • Ab
  • Adicionar à lista

    0 comentários

    Ver todos os comentários

    Conseguiu tocar?

    0 Tocaram 0 Ainda não

    Grave um vídeo tocando Canudinho e nos envie!

    Entre para oCifra Club PRO

    Tenha acesso a benefícios exclusivos no App e no Site

    • Chega de anúncios

    • Prioridade de compra em lançamentos

    • Mais recursos no app do Afinador

    • Atendimento Prioritário

    • Descontos nos produtos Cifra Club

    • Ajude a produzir mais conteúdo

    00:00 / 00:00

    Cifra Club Pro

    Aproveite o Cifra Club com benefícios exclusivos e sem anúncios
    Cifra Club Pro
    Aproveite o Cifra Club com benefícios exclusivos e sem anúncios
    OK