Cifra Club

Adúltera

Os Replicantes

Cifra: Principal (violão e guitarra)
tom: C
Intro
e|(0)------------------------(0)------|
b|----55555-666666-888888-------------|
g|----44444-555555-777777--9----------|
d|----22222-333333-555555--7----------|
a|------------------------------------|
E|------------------------------------|



"Você mulher solteira
Só pensa em se casar
Ter um pênis só pra si
Constituir um lar"

De dia lava louça
De noite quer trepar
Seu homem tá cansado
de tanto trabalhar

Base
e|------------------------------------|
b|----55555-666666-444444--666666-----|
g|----44444-555555-333333--555555-----|
d|----22222-333333-222222--333333-----|
a|------------------------------------|
E|------------------------------------|

"Adúltera, adúltera!"
e|------------------------------------|
b|----88-56--88-56-...----------------|
g|----77-45--77-45-...----------------|
d|----55-23--55-23-...----------------|
a|------------------------------------|
E|------------------------------------|
Composição de Zicco Cardoso
Colaboração e revisão:
  • leonardo bythors
3.236 exibições
    • ½ Tom
    • A
    • Bb
    • B
    • C
    • Db
    • D
    • Eb
    • E
    • F
    • F#
    • G
    • Ab
  • Adicionar à lista

    0 comentários

    Ver todos os comentários

    Conseguiu tocar?

    0 Tocaram 0 Ainda não

    Grave um vídeo tocando Adúltera e nos envie!

    00:00 / 00:00
    Outros vídeos desta música
    Repetir Qualidade Automático
    Outros vídeos desta música
    00:00 / 00:00
    Automático

    Cifra Club Pro

    Aproveite o Cifra Club com benefícios exclusivos e sem anúncios
    Cifra Club Pro
    Aproveite o Cifra Club com benefícios exclusivos e sem anúncios
    OK