Cifra Club

Astronauta

Os Replicantes

Tab de baixo: Principal
Intro:
G|-----------------------------|     
D|-----------------------------|  12x  
A|---2------4-5-4--------------|      
E|-----------------------------|     


Verso:

G|-----------------------------|     
D|-----------------------------|    Repete até o refrão    
A|---2222222222------4-5-4-----|      
E|-----------------------------|     


Refrão:

G|-----------------------------|     
D|-----------------------------|   
A|-----------------------------|      
E|---5-5-5-5--3-2-3------------|
     
G|-------------------------------------|     
D|-------------------------------------|   
A|-------------------------------------|      
E|---5-5-5-5--3-2-3---555566666666-----|




Intro
Verso
Refrão
Verso
Refrão
Verso
Refrão
Composição de Replicantes
Colaboração e revisão:
  • Igor Almeida
338 exibições

0 comentários

Ver todos os comentários

Conseguiu tocar?

0 Tocaram 0 Ainda não

Grave um vídeo tocando Astronauta e nos envie!

00:00 / 00:00
Outros vídeos desta música
Repetir Qualidade Automático
Outros vídeos desta música
00:00 / 00:00
Automático

Cifra Club Pro

Aproveite o Cifra Club com benefícios exclusivos e sem anúncios
Cifra Club Pro
Aproveite o Cifra Club com benefícios exclusivos e sem anúncios
OK