Cifra Club

Betas

Reset

Cifra: Principal (violão e guitarra)
Selo Cifra Club: esta cifra foi revisada para atender aos critérios oficiais da nossa Equipe de Qualidade.
tom: C
Intro 2x: Am  F  C  G
Solo:
E|---------------------------------------
B|-8-6-5---5---------5-6-8-6-6-5-5-------
G|-------7---7-5--7----------------7-----
D|---------------------------------------
A|---------------------------------------
E|---------------------------------------

Am              F               C     G
Quando olho pra você vejo o paraíso
Am              F                                 C        G
Quando os Betas estão na rua elas falam que somos lisos
Am             F               C           G
Tenho tudo pra dizer que já peguei geral
Am                                              G
Cada festa que estamos é só mulher sensacional

Refrão 2x:
Am
Somos betas,
F           C
Somos lisos
               G
e as novinhas sabem disso

Am
Somos betas,
F             C
Somos lisos,
                  G
e mulher velha também sabe disso

Ponte 2x: Am  F  C  G
Riff:
E|-8-7-5-----8-5-3-10--------------------
B|---------------------------------------
G|---------------------------------------
D|---------------------------------------
A|---------------------------------------
E|---------------------------------------

Am                  F
Muitos querem só os BETAS podem
C                G
Somos assim como ninguém
Am           F        C               G
Um Beta de verdade já pegou muito mais de 100


Am                      F
Um beta liso leva pro escurinho
C                  G
eu te apresento o Juninho

Am                      F
Um beta liso fala pra você
C                     G
eu te apresento agora o TG

Am                      F
Um cara beta quando te vê pousa
C                     G
o nome dele é Alex Souza

Am                   F
Não interessa se é feio ou gatinho
C                  G
eu lhe apresento o Léozinho

Am                 F
Um beta só pega mulher Sexy
C               G
eu te apresento o Alex

Am             F
Te pego numa noite só
C            G
Agora eu falo pra tu
Am          F
pega velha e novinha
C             G
esse beta é o Juninho Kzu

Refrão 2x:
Am
Somos betas,
F           C
Somos lisos
               G
e as novinhas sabem disso

Am
Somos betas,
F             C
Somos lisos,
                  G
e mulher velha também sabe disso

     Am  F  C  G
Somos Betas
                      Am   F   C   G
e as novinhas sabem disso
Riff - Refrão:
E|---------------------------------------
B|---------------------------------------
G|---------------------------------------
D|-7-7-5-7------7-7-5-7---9---5----------
A|---------------------------------------
E|---------------------------------------
Outros vídeos desta música
    113 exibições
      • ½ Tom
      • A
      • Bb
      • B
      • C
      • Db
      • D
      • Eb
      • E
      • F
      • F#
      • G
      • Ab
    • Adicionar à lista

    Afinação da cifra

    Afinador online

      0 comentários

      Ver todos os comentários

      Entre para o Cifra Club PRO

      Tenha acesso a benefícios exclusivos no App e no Site

      • Chega de anúncios

      • Badges exclusivas

      • Mais recursos no app do Afinador

      • Atendimento Prioritário

      • Aumente seu limite de lista

      • Ajude a produzir mais conteúdo

      Cifra Club Pro

      Aproveite o Cifra Club com benefícios exclusivos e sem anúncios
      Cifra Club Pro
      Aproveite o Cifra Club com benefícios exclusivos e sem anúncios
      Ops (: Contenido disponible sólo en portugués.
      OK