Cifra Club

Moonlight

Reset

Cifra: Principal (violão e guitarra)
Selo Cifra Club: esta cifra foi revisada para atender aos critérios oficiais da nossa Equipe de Qualidade.
tom: Ab
Album : Radioactive
Tabbed by : Adam Doyon alias Johnny

Intro
e|----------------------------------------------------------------|
B|----------------------------------------------------------------|
G|----------------------------------------------------------------|
D|-8-888-11-111111-6-666-10-101010-8-888-11-111111-6/8-10---------|
A|-8-888-9--9-9-9--4-444-8--8-8-8--8-888-9--9-9-9--4/6-8--6-8-6-4-|
D|-8-888---------------------------8-888--------------------------|
     ...    . . .    ...    . . .    ...    . . .

e|----------------------------------------------------------------||
B|----------------------------------------------------------------||
G|----------------------------------------------------------------||
D|-8-888-11-111111-6-666-10-101010-8-888-11-111111-6/8-1010101010-||
A|-8-888-9--9-9-9--4-444-8--8-8-8--8-888-9--9-9-9--4/6-8-8-8-8-8--||
D|-8-888---------------------------8-888--------------------------||
     ...    . . .    ...    . . .    ...    . . .

e|---------------------------------------------------------|
B|---------------------------------------------------------|
G|---------------------------------------------------------|
D|-8-888-8-3/4/6/4-4-444-4-4-4-1-111-1-1/3/4/3-3-333-3-333-|
A|-8-888-8-3/4/6/4-4-444-4-4-4-1-111-1-1/3/4/3-3-333-3-333-|
D|-8-888-8-3/4/6/4-4-444-4-4-4-1-111-1-1/3/4/3-3-333-3-333-|
     ...             ...   .     ...             ...   ...

e|---------------------------------------------------------------|
B|---------------------------------------------------------------|
G|---------------------------------------------------------------|
D|-8-888-8-3/4/6/4-4-444-4-4-4-1-111-1-1/3/4/3-3-333-------------|
A|-8-888-8-3/4/6/4-4-444-4-4-4-1-111-1-1/3/4/3-3-333-4-3-1-8-6-4-|
D|-8-888-8-3/4/6/4-4-444-4-4-4-1-111-1-1/3/4/3-3-333-------------|
     ...             ...   .     ...

e|---------------------------------------------------------|
B|---------------------------------------------------------|
G|---------------------------------------------------------|
D|-8-888-8-3/4/6/4-4-444-4-4-4-1-111-1-1/3/4/3-3-333-3-333-|
A|-8-888-8-3/4/6/4-4-444-4-4-4-1-111-1-1/3/4/3-3-333-3-333-|
D|-8-888-8-3/4/6/4-4-444-4-4-4-1-111-1-1/3/4/3-3-333-3-333-|
     ...             ...   .     ...             ...   ...

e|---------------------------------------------------------------|
B|---------------------------------------------------------------|
G|---------------------------------------------------------------|
D|-8-888-8-3/4/6/4-4-444-4-4-4-1-111-1-1/3/4/3-3-333-------------|
A|-8-888-8-3/4/6/4-4-444-4-4-4-1-111-1-1/3/4/3-3-333-4-3-1-8-6-4-|
D|-8-888-8-3/4/6/4-4-444-4-4-4-1-111-1-1/3/4/3-3-333-------------|
     ...             ...   .     ...

e|----------------------------------------------------------|
B|----------------------------------------------------------|
G|----------------------------------------------------------|
D|-8-888-8-3/4/6/4-4-444-4-4-4-1-111-1-1/3/4/3-3-333-101010-|
A|-8-888-8-3/4/6/4-4-444-4-4-4-1-111-1-1/3/4/3-3-333-8-8-8--|
D|-8-888-8-3/4/6/4-4-444-4-4-4-1-111-1-1/3/4/3-3-333--------|
     ...             ...   .     ...             ...

e|---------------------------------------------------------------|
B|---------------------------------------------------------------|
G|---------------------------------------------------------------|
D|-8-888-8-3/4/6/4-4-444-4-4-4-1-111-1-1/3/4/3-3-333-------------|
A|-8-888-8-3/4/6/4-4-444-4-4-4-1-111-1-1/3/4/3-3-333-4-3-1-8-6-4-|
D|-8-888-8-3/4/6/4-4-444-4-4-4-1-111-1-1/3/4/3-3-333-------------|
     ...             ...   .     ...
e|----------------------------------------------------------|
B|----------------------------------------------------------|
G|----------------------------------------------------------|
D|-8-888-8-3/4/6/4-4-444-4-4-4-1-111-1-1/3/4/3-3-333-101010-|
A|-8-888-8-3/4/6/4-4-444-4-4-4-1-111-1-1/3/4/3-3-333-8-8-8--|
D|-8-888-8-3/4/6/4-4-444-4-4-4-1-111-1-1/3/4/3-3-333--------|
     ...             ...   .     ...             ...

e|---------------------------------------------------------------|
B|---------------------------------------------------------------|
G|---------------------------------------------------------------|
D|-8-888-8-3/4/6/4-4-444-4-4-4-1-111-1-1/3/4/3-3-333-------------|
A|-8-888-8-3/4/6/4-4-444-4-4-4-1-111-1-1/3/4/3-3-333-4-3-1-8-6-4-|
D|-8-888-8-3/4/6/4-4-444-4-4-4-1-111-1-1/3/4/3-3-333-------------|
     ...             ...   .     ...

e|-----------------------------------------------------------------|
B|-----------------------------------------------------------------|
G|-----------------------------------------------------------------|
D|-8-888-8-888-11-111111-11-111111-6-666-6-666-10-101010-10-101010-|
A|-8-888-8-888-9--9-9-9--9--9-9-9--4-444-4-444-8--8-8-8--8--8-8-8--|
D|-8-888-8-888-----------------------------------------------------|
     ...   ...    . . .     . . .    ...   ...    . . .     . . .
e|-----------------------------------------------------------------|
B|-----------------------------------------------------------------|
G|-----------------------------------------------------------------|
D|-8-888-8-888-11-111111-11-111111-6-666-6-666-10-101010-10-101010-|
A|-8-888-8-888-9--9-9-9--9--9-9-9--4-444-4-444-8--8-8-8--8--8-8-8--|
D|-8-888-8-888-----------------------------------------------------|
     ...   ...    . . .     . . .    ...   ...    . . .     . . .

e|-----------------------|
B|-----------------------|
G|-----------------9-10--|
D|---------8-10-11-------|
A|-8-10-11---------------|
D|-----------------------|


Chorus
e|----------------------------------------------------------------|
B|----------------------------------------------------------------|
G|----------------------------------------------------------------|
D|-8-888-11-111111-6-666-10-101010-8-888-11-111111-6/8-10---------|
A|-8-888-9--9-9-9--4-444-8--8-8-8--8-888-9--9-9-9--4/6-8--6-8-6-4-|
D|-8-888---------------------------8-888--------------------------|
     ...    . . .    ...    . . .    ...    . . .

e|----------------------------------------------------------------|
B|----------------------------------------------------------------|
G|----------------------------------------------------------------|
D|-8-888-11-111111-6-666-10-101010-8-888-11-111111-6/8-1010101010-|
A|-8-888-9--9-9-9--4-444-8--8-8-8--8-888-9--9-9-9--4/6-8-8-8-8-8--|
D|-8-888---------------------------8-888--------------------------|
     ...    . . .    ...    . . .    ...    . . .


After the chorus repeat the same riff. I'm sorry that I don't have the outro.

Outro (??)
e|-----------------------------------------------------------|
B|-----------------------------------------------------------|
G|-----------------------------------------------------------|
D|-----------------------------------------------------------|
A|-----------------------------------------------------------|
D|-----------------------------------------------------------|
Outros vídeos desta música
    214 exibições
      • ½ Tom
      • A
      • Bb
      • B
      • C
      • Db
      • D
      • Eb
      • E
      • F
      • F#
      • G
      • Ab
    • Adicionar à lista

    Afinação da cifra

    Afinador online

      0 comentários

      Ver todos os comentários

      Entre para o Cifra Club PRO

      Tenha acesso a benefícios exclusivos no App e no Site

      • Chega de anúncios

      • Badges exclusivas

      • Mais recursos no app do Afinador

      • Atendimento Prioritário

      • Aumente seu limite de lista

      • Ajude a produzir mais conteúdo

      Cifra Club Pro

      Aproveite o Cifra Club com benefícios exclusivos e sem anúncios
      Cifra Club Pro
      Aproveite o Cifra Club com benefícios exclusivos e sem anúncios
      Ops (: Contenido disponible sólo en portugués.
      OK