Cifra Club

Aprenda

Ao Rei

Resgate

Cifra: Principal (violão e guitarra)
Tom: Em
[Intro] G  C9  G/B

E|------------------------------------------|
B|------------------------------------------|
G|----------------0---------0---------------|
D|-----0--------2-----2h3-------2---0-------|
A|---2----2-2h3-----3-----3---3---3---3-----|
E|-3----------------------------------------|

 G          F           C       G        F          C
Os céus proclamam tua gló_ria, e falam do que fazem as tuas mãos
  G        F      C4 C
Os rios aplaudem tua força
   G       F                C               D9 C9 G/B (A B C D9)
E juntos cantam mais uma canção a Deus

      D9                      D9                       G
E|----0---0---0--|-------|----0----0----0---|----------3--|
B|----3---3---3--|-------|----3----3----3---|----------3--|
G|----2---2---2--|-------|----2----2----2---|----------0--|
D|-0-------------|-------|-0----------------|----------0--|
A|------3---2----|---0-2-|-------3----2-----|-0-2-0----2--|
E|---------------|-3-----|------------------|-------0--3--|

[Refrão]

 G        Am        Em D    G       Am  Em  D
Tudo que tem fôlego louve, tudo que respira
 G    Am          Em       C      D9 C9 G/B (A B C D9)
Tudo que tem vida cante  ao rei

 G          F           C       G        F          C
As nuvens são a tua ca__sa  e a terra é o descanso dos teus pés
  G        F      C4 C
Tua voz tem o som de muitas águas
     G        F           C               D9 C9 G/B (A B C D9)
Teu rosto brilha muito mais que a luz do sol

E|----------------------------|
B|--0----0----0----0----------|
G|----0----0----0----0--------|
D|-5----3----2----1----1------|
A|----------------------------|
E|----------------------------|
Composição de Zé Bruno
Colaboração e revisão:
33.664 exibições
    • ½ Tom
    • Am
    • Bbm
    • Bm
    • Cm
    • C#m
    • Dm
    • Ebm
    • Em
    • Fm
    • F#m
    • Gm
    • G#m
  • Adicionar à lista

    0 comentários

    Mostrar mais comentários
    00:00 / 00:00
    outros vídeos desta música
    repetir qualidade Automático
    Outros vídeos desta música
    00:00 / 00:00
    Automático

    Cifra Club Pro

    Aproveite o Cifra Club com benefícios exclusivos e sem anúncios
    7 dias grátis
    Cifra Club Pro
    Aproveite o Cifra Club com benefícios exclusivos e sem anúncios
    7 dias grátis
    OK