Cifra Club

Apocalipse Now

Resgate

Cifra: Principal (violão e guitarra)
Tom: A
Intro 2x: D  A
E|--5--4--0---5--4--0-------0------0-|
B|---------------------2--0---2--0---|
G|-----------------------------------|  (2x)
D|--0---------0---------------0------|
A|---------------------0-------------|
E|-----------------------------------|

F#m               E        F#m             E
Um dia sentado meditando, procurando respostas
F#m               E       F#m                E      F#m             E
Pra esta grande piração: morte, guerra, destruição, AIDS, câncer, solidão
D               D
AIDS, Câncer, AIDS, Câncer
   D         D          A                A
Se eu fosse você não ia dormir tão cedo, porque não sei
    D       D                    A
Se você vai acordar no horário marcado

Intro 2x: D  A
E|--5--4--0---5--4--0-------0------0-|
B|---------------------2--0---2--0---|
G|-----------------------------------|  (2x)
D|--0---------0---------------0------|
A|---------------------0-------------|
E|-----------------------------------|

F#m        E    F#m      E    F#m         E   F#m           E
Dois numa cama um será levado, no céu haverá aviões desgovernados,
F#m             E              F#m               E
Pilotos também arrebatados, na Terra grande confusão
D                         E     E
O que será que a todos engoliu?
D          D            A            A             D
O padeiro, a secretária, o motorista, o jornalista, o executivo e
D                       A
As crianças sumiram, subiram

F#m             E    F#m                  E      F#m
Na esquina do pecado, o assunto, então, mudou, todos confusos
E              F#m             E
Se perguntam: onde estão os caretas malucos
F#m               E
que contavam uma nova história (2x)
D             D           A    A   D     D         A        A
Dizendo que o Filho do homem viria para levá-los a um outro lugar

Solo 4x: F#m  E  D  E

F#m                 E         D                   E          E
No ouvido um grande alarido, sinto a orquestra celestial
F#m            E            D                E            E
As trombetas forte soaram, a ordem da volta foi selada
F#m                  E        D              E         E
Os cavaleiros do Apocalipse preparam sua montaria

F#m                     E           F#m                   E
A grande batalha sinto vai começar, a hora do mal a gente ver acabar
F#m                       E                    F#m
O fim está chegando e a mensagem foi passada, olhe os sinais
             E                   F#m                E
Pense que a chance foi lhe dada, levante a mão e no fim comece
    D           E         F#m  E  D  E
O início de uma nova...  ( VIDAAAA... ) (4x)

Solo 4x: F#m  E  D  E

 Intro 2x: D  A
E|--5--4--0---5--4--0-------0------0-|
B|---------------------2--0---2--0---|
G|-----------------------------------|   (2x)
D|--0---------0---------------0------|
A|---------------------0-------------|
E|-----------------------------------|
exibições 69.611
Acordes para:

    0 comentários

    mostrar mais comentários

    Conseguiu tocar?

    11 tocaram 0 ainda não

    Grave um vídeo tocando Apocalipse Now e mande pra gente!

    00:00 / 00:00
    outros vídeos desta música
    repetir qualidade Automático
    Outros vídeos desta música
    00:00 / 00:00
    Automático
    OK