Cifra Club

Doutores da Lei

Resgate

Cifra: Principal (violão e guitarra)
Selo Cifra Club: esta cifra foi revisada para atender aos critérios oficiais da nossa Equipe de Qualidade.
tom: G
[Intro] E  G  F#  E  D  C  E  G  F#  E  C  B
        E  G  F#  E  D  C  E  G  F#  E  C  B  C  B  A  D  C  B  C  B  Em

E|-----------------------------------------------------|
B|-----------------------------------------------------|
G|-----------------------------------------------------|
D|------------4-3------------2-1-----------------------|   (2x)
A|------------5-4------------3-2-----------------------|
E|--0-0-3-2-0------0-0-3-2-0---------------------------|
PM.....            ...
                            Em
E|--------------------------0--------------------------|
B|--------------------------0--------------------------|
G|--------------------------0--------------------------|
D|--------------------------2--------------------------|
A|--0-2-3~--2--5-3-2p0-2----2--------------------------|
E|-----------5--------------0--------------------------|
               PM.....

Riff na primeira a 1ª estrofe (rápido):
E|-----------------------------------------------------|
B|-----------------------------------------------------|
G|-----------------------------------------------------|
D|-----------------------------------------------------|
A|--0-2-3p0--------------------------------------------|
E|-----------------------------------------------------|

Em       D           C 
Quem conhece a liberdade
Em         D              C (Riff)
A quem o próprio Deus chamou
Em    D          C 
Não aceitará se submeter
Em    D           C 
A nenhuma escravidão

(Solo Introdução)

(E  G  F#  E  D  C  E  G  F#  E  C  B)
(E  G  F#  E  D  C  E  G  F#  E  C B)

Em         D             C
Mas lá vem eles pra nos "ensinar"
Em        D             C
O que se pode e não se pode fazer
Em     D              C
Tem a honra nos seus lábios
Em      D           C
Mas distante o coração

G      D        Em
Os doutores da lei
Am    G      D
Permanecem inertes
G      D         Em
Sob as tábuas da lei
Am       G              D
Criadas pelas próprias mãos

G   D   C    Bm  Em
Alguém sabe, eu sei!

Riff seguindo a voz:

   Alguém sabe, eu  sei
E|-------------------0--------------------------------|
B|-------------------0--------------------------------|
G|-------------------0--------------------------------|
D|-------------------2--------------------------------|
A|-----5--3----2-----2--------------------------------|
E|--3----------------0--------------------------------|

Riff na estrofe após o refrão:

E|---------------------------------------------------|
B|-4h6/16--------------------------------------------|
G|---------------------------------------------------|
D|---------------------------------------------------|
A|---------------------------------------------------|
E|---------------------------------------------------|

 G             D               Em
Misericórdia quero, e não holocaustos
G     D        Em (Riff)
É preciso aprender!
G              D              Em
Misericórdia quero, e não holocaustos
C     D  Em
Aprender

Base Solo do meio:

 (E  G  F#  E  D  C  E  G  F#  E  C  B) (4x)
 (C  B  A  D  C  B  C  B  Em)

E|-----------------------------------------------------|
B|-----------------------------------------------------|
G|-----------------------------------------------------|
D|------------4-3------------2-1-----------------------|   (4x)
A|------------5-4------------3-2-----------------------|
E|--0-0-3-2-0------0-0-3-2-0---------------------------|
PM.....            ...

                            Em
E|--------------------------0--------------------------|
B|--------------------------0--------------------------|
G|--------------------------0--------------------------|
D|--------------------------2--------------------------|
A|--0-2-3~--2--5-3-2p0-2----2--------------------------|
E|-----------5--------------0--------------------------|
               PM.....

[Final] E  G  F#  E  D  C  E  G  F#  E  C  B
        E  G  F#  E  D  C  E  G  F#  E  C  B
Outros vídeos desta música
26.362 exibições
    • ½ Tom
    • A
    • Bb
    • B
    • C
    • Db
    • D
    • Eb
    • E
    • F
    • F#
    • G
    • Ab
  • Adicionar à lista

Afinação da cifra

Afinador online

    0 comentários

    Ver todos os comentários

    Entre para o Cifra Club PRO

    Tenha acesso a benefícios exclusivos no App e no Site

    • Chega de anúncios

    • Mais recursos no app do Afinador

    • Atendimento Prioritário

    • Aumente seu limite de lista

    • Ajude a produzir mais conteúdo

    Cifra Club Pro

    Aproveite o Cifra Club com benefícios exclusivos e sem anúncios
    Cifra Club Pro
    Aproveite o Cifra Club com benefícios exclusivos e sem anúncios
    OK