Cifra Club

Aprenda

Em Todo Lugar

Resgate

Cifra: Principal (violão e guitarra)
Tom: E
[Intro] E  A  B 
        C#m  A  E  F#m

G|----------4-4h6p4---4-----------------------------|
D|----4-4h6---------6--6p4---2------4h6-2h4------2--|
A|------------------------------2h4-----------2h4---|
E|-0------------------------------------------------|

G|----------4-4h6p4---4-----------------------------|
D|----4-4h6---------6--6p4---2------2h4-------2-----|
A|------------------------------2h4--------2h4---2h4|
E|-0------------------------------------------------|

G|----------4-4h6p4---4-----------------------------|
D|----4-4h6---------6--6p4---2------4h6-2h4~~-------|
A|------------------------------2h4-----------------|
E|-0------------------------------------------------|

E|---------------------------------0---|
B|-----99------------------------------|
G|-4/6---6\4-------4-----------2-2-1---|
D|-------------4h6---6p4-2h4p2-2-2-2---|
A|-------------------------------------| ----2-4---|
E|-------------------------------------| -/5-----2-|

F#m                          E
 Não há quem possa ficar tão longe
F#m                 E
 Que não possa ser visto assim
F#m               E
 Os teus olhos em todo lugar
F#m
 Aonde quer que se vá
E
Aonde quer que se vá

A9       F#m         B9
 Se eu fizer a minha casa no mais alto
A9       F#m          B9
 Se eu armar a minha cama entre os mortos
 C#m           A           B
 Os teus olhos vão estar eu sei
              E   A  B  E  A  B  E  A  B  C#m  B  A  E
 Em todo lugar] solo inicial

F#m                            E
 Quando me levanto e quando me deito
F#m                 E
 Até mil anos parecem dias
F#m                        E
 Não há palavras na minha boca
F#m
 Mas já existem sons 
E
 Nos teus ouvidos

( E  A  B  E  A  B  E  A  B )
( C#m  B  A  E  C#m  Badd9  A  E )
Composição de Zé Bruno
Colaboração e revisão:
94.085 exibições
    • ½ Tom
    • A
    • Bb
    • B
    • C
    • Db
    • D
    • Eb
    • E
    • F
    • F#
    • G
    • Ab
  • Adicionar à lista

    0 comentários

    Mostrar mais comentários

    Conseguiu tocar?

    6 Tocaram 1 Ainda não

    Grave um vídeo tocando Em Todo Lugar e mande pra gente!

    00:00 / 00:00
    outros vídeos desta música
    repetir qualidade Automático
    Outros vídeos desta música
    00:00 / 00:00
    Automático

    Cifra Club Pro

    Aproveite o Cifra Club com benefícios exclusivos e sem anúncios
    7 dias grátis
    Cifra Club Pro
    Aproveite o Cifra Club com benefícios exclusivos e sem anúncios
    7 dias grátis
    OK